Black Sabbath

Black Sabbath
N I B (Guitar tab)

Author/Artist: Black Sabbath
Title: N.I.B.
Album: Black Sabbath
Transcribed by: Jerry Casperson
Email: springer@2die4.com

intro, verse, interlude, verse and bridge.

----------------------------------------|-----------------------------------|-
----------------------------------------|-----------------------------------|-
----------------------------------------|-------------------------14------12|-
----------------------------------------|-----------------------------------|-
-14---14---12---14-------17---16--------|--14---14---12---14----------------|-
-12---12---10---12-------15---14--------|--12---12---10---12----------------|-


-----------------------------------------|------------------------------------
-----------------------------------------|------------------------------------
-----------------------------------------|------------------------------------
-----------------------------------------|------------------------------------
-----14---14---12---14---------17---16---|--14---14---14-----------12-14-12---
-----12---12---10---12---------15---14---|--12---12---10-----/12--------------


------------|------------------------------------|----------------------------
------------|------------------------------------|----------------------12----
------------|------------------------------------|----------------------12----
------------|------------------------------------|----------------------------
-14-12-14---|--14---14---12-------17---16--------|--14---14---12---14---------
------------|--12---12---10-------15---14--------|--12---12---10---12---------


-----------|--------------------------------------|---------------------------
-12\-------|--------------------------------------|---------------------------
-12\-------|--------------------------------------|---------------------------
-----------|--------------------------------------|---------------------------
-----------|--14---14---12---14-------17---16-----|--14---14---12---14--------
-----------|--12---12---10---12-------15---14-----|--12---12---10---12--------


-------------------------|-------------------------------------|--------------
-------------------------|-------------------------------------|--------------
-------------------------|-------------------------------------|--------------
-------------------------|-------------------------------------|--------------
------12-14-12-14-12-14--|--14---14---12---14-----17---16------|-14---14------
-/12---------------------|--12---12---10---12-----15---14------|-12---12------


-------------------------------|-------------------------------------------|--
----------------12----12\------|-------------------------------------------|--
----------------12----12\------|-------------------------------------------|--
-------------------------------|-------------------------------------------|--
-12---14-----------------------|-14---14---12---14--------17----16---------|--
-10---12-----------------------|-12---12---10---12--------15----14---------|--


--------------------------|--------------------------------------|------------
--------------------------|--------------------------------------|------------
--------------------------|--------------------------------------|------------
--------------------------|--------------------------------------|------------
-14---14---12---14-----\--|-----------10--12---12---10-----------|------------
-12---12---10---12-----\--|--10--12---------------------12---12--|--10-12-----


--------------------------------|---------------------------------------------
--------------------------------|-------------------------------------12------
--------------------------------|-------------------------------------14------
--------------------------------|---------------------------------------------
-10---12---12---10--------------|------------10--12---12--10------------------
---------------------12---12----|-10---12---------------------12--12----------


-----------|-----------------------|--------------------|-------------------|-
-12--------|-----------------------|--------------------|-------------------|-
-14--------|-----------------------|--------------------|-------------------|-
-----------|-9----------------9----|-7---------------7--|-5-----------------|-
-----------|-7----------------7----|-5---------------5--|-3----------------3|-
-----------|-----------------------|--------------------|-------------------|-


--------------------|-------------------------|-------------------|-----------
--------------------|-------------------------|-------------------|-----------
--------------------|-------------------------|-------------------|-----------
---4------------4---|---9----------------9----|-7--------------7--|--5--------
---2------------2---|---7----------------7----|-5--------------5--|--3--------
--------------------|-------------------------|-------------------|-----------


------|------------------------|-----------------------|--------|-------------
------|------------------------|-----------------------|--------|-------------
------|------------------------|-----------------------|--------|-------------
--5---|----4--------------4----|---5---------------5---|-----4--|-------------
--3---|----2--------------2----|---3---------------3---|-----2--|-------------
------|------------------------|-----------------------|--------|-------------

OptimusPrime

Submitted by OptimusPrime at Sun 01 Dec, 2002 8:39 am

Author: ?
Composer: ?
Publisher: ?
Language: English

Reactions

CommonCrawl [Bot]

Follow Muzikum