Black Sabbath

Black Sabbath
Snowblind (Bass tab)

from - KtuluKid@aol.com

Black Sabbath
Snowblind - Bass
Volume 4


tune dowm 1 1/2 steps low to high (C# F# B E)
intro riff What you get
||------------------------------------------7---7------||-----------
||------------------------5---5---5-------7---7---7----||-----------
||-7--9--10\---5--7\--3-3---3---3---3-5-5-----------5--||-7---7-5-7-
||-----------------------------------------------------||-----------
and what you see... My eyes are
------------------||------------------------------7---||----9------9
---------------5--||--------------------5---5---7---7-||------------
-7--5-5--0-5/7----||-5h7--5-4---------3---3---5-------||-7----7-10--
------------------||-----------5--6-5-----------------||------------
blind but I can see... (1st Solo also) Don't
-7------7-6--6-6-5--5-5-7-9--------------||back to intro riff||-----
----------------------------9--9-9-------||vocal riff and ||-----
---7-10----------------------------9-10\-||chorus riffs a ||-7--7
-----------------------------------------||couple of times. ||-----
you think I know what I'm doin', your the one that's...
----------------------------------------------7---7---||back to vocal
------------------------------------------------------||riff for the
-10p7-10p7--7--7-10p7-10p7--7--7-10p7-10p7--5---5-----||2nd guitar
------------------------------------------------------||solo.
\=slide down h=hammer-on Be careful around the 1st solo riff, it's
/=slide up p=pull-off a little tricky, also peicing the song
together may be a little tricky at first,
eventually it'll come.

OptimusPrime

Submitted by OptimusPrime at Fri 11 Jan, 2002 1:08 pm

Author: ?
Composer: ?
Publisher: ?
Language: English
Available on: End - CD 1 (2017), End - CD 3 (2017), End - CD 5 (2017), The End - CD 1 (2017), The Ultimate Collection - CD 2 (2016), Vol 4 (1972)

Reactions

CommonCrawl [Bot]

Follow Muzikum