Black Sabbath

Black Sabbath
N I B (Bass tab)

from - KtuluKid@aol.com

N.I.B. - Bass
Black Sabbath - Black Sabbath


Some people say my love can not be true...
||----------------------------------------------------------
||-----------5-4-----------7b(9)-7-5-----------5-4----------
||--7-7-5-7-------7-7-5-7-------------7-7-5-7-------7-7-5-7-
||----------------------------------------------------------
1st x
-----------||-----9-9-9---------7-7-7---------5-5-5--------4
---------5-||---9-------9-----7-------7-----5-------5-----4-
-----5h7---||-7-----------7-5-----------5-3-----------3-2---
-5h7-------||-----------------------------------------------
2nd & 4th x Your love for me...
-4-4-----|-----9--9---------7--7---------5--5---------------
-----4---|---9------9-----7------7-----5------5-------------
-------2-|-7----------7-5----------5-3----------3-2-2-2-2-2-
---------|--------------------------------------------------

-------9--9---------7--7---------5--5---------------------5-
-----9------9-----7------7-----5------5-----------------5---
-2-7----------7-5----------5-3----------3-2-2-2-2-2-2-3-----
------------------------------------------------------------
3rd x (Solo)
--5---------4--4---------5--5----------|-----9-9-9---------7
----5-----4------4-----5------5--------|---9-------9-----7--
------3-2----------2-3----------3-2----|-7-----------7-5----
---------------------------------------|--------------------

-7-7---------5-5-5---------4-4-4----------------------------
-----7-----5-------5-----4-------4--------------------------
-------5-3-----------3-2-----------2-7--7-7-7--7-7-7--7-7-7-
------------------------------------------------------------

------------------------------------------------------------
------------------------------------------------------------
-7-7-5--5-5-5--5-5-5--5-5-5--5-5-3--3-3-3--3-3-3--3-3-3--3-3
------------------------------------------------------------

------------------------------------------------------------
------------------------------------------------------------
-2--2-2-2--2-2-2--2-2-2--2-2-7-7-7-7-7--------5-5-5-5-5-----
------------------------------------------------------------

-------------------------------4-4-------------------7h9-9-9
---------------------------4-4-----4-4-----------7h9--------
----3-3-3-3-3----------2-2--------------7--7-7-7------------
------------------------------------------------------------

-9-9-9-7----------------5h7-7-7-7-7-7-5-----------------3h5-
---------9----------5h7-----------------7-----------3h5-----
-----------5--5-5-5------------------------3--3-3-3---------
------------------------------------------------------------
5th (2nd solo)
-5-5-5-5-5-3----------------2h4-4-4-4-4-4-2---|-----9-9-9---
-------------5----------2h4-----------------4-|---9-------9-
---------------2--2-2-2-----------------------|-7-----------
----------------------------------------------|-------------

-------7-7-7---------5-5-5----------4-4-4-------------------
-----7-------7-----5-------5------4-------4-----------------
-7-5-----------5-3-----------3-2------------2-7--7-7-7--7-7-
------------------------------------------------------------

------------------------------------------------------------
------------------------------------------------------------
-7--7-7-7--7-7-5--5-5-5--5-5-5--5-5-5--5-5--3--3-3-3--3-3-3-
------------------------------------------------------------

-----------------------------------------------------7h9-9-9
-------------------------------------------------7h9--------
-3-3-3--3-3-2--2-2-2--2-2-2--2-2-2--2-2-7--7-7-7------------
------------------------------------------------------------

-9-9-9-7----------------5h7-7-7-7-7-7-5------------------3h5
---------9----------5h7-----------------7------------3h5----
-----------5--5-5-5-------------------------3--3-3-3--------
------------------------------------------------------------

-5-5-5-5-5-3----------------2h4-4-4-4-4-4-2-----------------
-------------5----------2h4-----------------4-------------9-
---------------2--2-2-2-----------------------7--7-7-7--7---
------------------------------------------------------------

-9-9-9-9-9-9-9-------------------7-7-7-7-7-7-7--------------
---------------9---------------7---------------7------------
-----------------7-5--5-5-5--5-------------------5-3--3-3-3-
------------------------------------------------------------

-----5-5-5-5-5-5-5-------------------4-4-4-4-4-4-4----------
---5---------------5---------------4---------------4--------
-3-------------------3-2--2-2-2--2-------------------2-7--7-
------------------------------------------------------------

------------9-9-9-9-9-9-7------------------7-7-7-7-7-7-5----
----------9---------------9--------------7---------------7--
-7-7-7--7-------------------5--5-5-5---5-------------------3
------------------------------------------------------------

-------------5-5-5-5-5-3------------------------------------
-----------5-------------5----------------------------------
--3-3-3--3-----------------2-2-2-2-2-2-2-2-2---------7-7-7-7
------------------------------------------------------------

----------------|| b=bend
----------------||( )=bend to
-7-7--------7\--|| h=hammer-on
----------------|| \=slide down

OptimusPrime

Submitted by OptimusPrime at Fri 11 Jan, 2002 1:07 pm

Author: ?
Composer: ?
Publisher: ?
Language: English

Reactions

1 post

CommonCrawl [Bot]
dark666c
Mon 05 Jul, 2004 7:24 pm
Awesome tab for bass. Good job on this.
1 post • Page 1 of 1

Follow Muzikum