Black Sabbath

Black Sabbath
Too Late (Guitar tab)

from - idol9502@hotmail.com

Too Late
Black Sabbath - Dehumanizer


|-------3-----0---------------------------3-----0----------------------
|-----0---------0-------0-----0---------0---------0-------0-----0------
|---0-----------------4-----0---------0-----------------4-----0--------
|-2---------2-------5-----4-------4-2---------2-------5-----4-------4--
|-------------------------------5---------------------------------5----
|----------------------------------------------------------------------


|-------3-----0-------------------------0---------------0--------
|-----0---------0-------0-----0-------------0-------------0------
|---0-----------------4-----0---------2-------2-------0-----0----
|-2---------2-------5-----4---------2-----------2---2---------2--
|-------------------------------5-4---------------3--------------
|----------------------------------------------------------------


|---------0---------------0---------------0---------------0--------
|-------0---------------0---0-----------0---------------0---0------
|-----0---------------0-------0-------0---------------0-------0----
|---2---------------2-----------2---2---------------2-----------2--
|---------------5-4-----------------------------4-3----------------
|-0---------0-2-------------------0---------0-2--------------------


|---------0----------------------------------------------------
|-------0---------------0--------------------------------------
|-----0---------------2----------------------------------------
|---2---------------1------------------------------------------
|---------------3-2--------------------------------------------
|-0---------0-2-----------1---0--------------------------------


|--------------------------------------------------------------------
|--------------------------------------------------------------------
|--------------------------------------------------------------------
|-9--9-9---------------9--9-9---------------9--9-9---------------2---
|-7--7-7--2-4-5-4~~~~--7--7-7--2-4-4-3~~~~--7--7-7--2-4-3-2~~----2---
|-0--0-0--0-2----------0--0-0--0-2----------0--0-0--0-2-------1~-0---


|---------------------------------------------------------------------------
|---------------------------------------------------------------------------
|-12/14-2-2----------5-5---12/14-2-2----12/14-2-2----------5-5---12/14--10--
|-12/14-2-2----------5-5---12/14-2-2----12/14-2-2----------5-5---12/14--10--
|-10/12-0-0----0-3-0-------10/12-0-0----10/12-0-0----0-3-0-------10/12---8--
|---------------------------------------------------------------------------


|--------------------------------------------------------------------
|--------------------------------------------------------------------
|-9-7-9--------------9-7-9--------------9-7-9------------------------
|-9-7-9--------------9-7-9--------------9-7-9--------------2---------
|-7-5-7--2-4-5-4~~---7-5-7--2-4-4-3~~---7-5-7--2-4-3-2~----2---------
|--------0-2----------------0-2----------------0-2------1~-0---------

OptimusPrime

Submitted by OptimusPrime at Sun 02 Dec, 2001 6:00 pm

Author: ?
Composer: ?
Publisher: ?
Language: English

Reactions

CommonCrawl [Bot]

Follow Muzikum