Black Sabbath

Black Sabbath
I (Guitar tab)

from - idol9502@hotmail.com

I
Black Sabbath - Dehumanizer


|-------------------------------------------------------
|-------------------------------------------------------
|-------------------------------------------------------
|------5-----------------------------5------------------
|----5---7-------------------------5---7----------------
|-/7---------0----/7-5-3^-0-----/7--------0--/7-5-3^-0--


|---------------------------------------------------------------------
|---------------------------------------------------------------------
|---------------------------------------------------------------------
|--7h9---------7h9---------7h9-----7h10---------7h10---------10h12\---
|--7-----------7-----------7-------7------------7------------10-------
|------0-0-0-0-----0-0-0-0-----0-0------0-0-0-0------0-0-0-0----------


|---------------------------------------------------------------------
|---------------------------------------------------------------------
|--9----7--9--5-----12/14--7-11--9----7--9--5-------------------------
|--9----7--9--5-----12/14--7-11--9----7--9--5-------------------------
|--7----5--7--3-----10/12--5--9--7----5--7--3-------------------------
|---------------------------------------------------------------------


|----------------------------------------------------------------------
|----------------------------------------------------------------------
|-----9-8----10-9-----9-8----------------9-8----10-9-----9-8-----------
|-----9-8----10-9-----9-8-------7-5------9-8----10-9-----9-8-------5---
|-----7-6-----8-7-----7-6-----7-7-5------7-6-----8-7-----7-6-----7-5---
|-0-0-----0-0-----0-0-----7-6---5-3--0-0-----0-0-----0-0-----7-6---3---

OptimusPrime

Submitted by OptimusPrime at Sun 02 Dec, 2001 6:00 pm

Author: ?
Composer: ?
Publisher: ?
Language: English

Reactions

CommonCrawl [Bot]

Follow Muzikum