Black Sabbath

Black Sabbath
Children Of The Grave 2 (Guitar tab)

from - idol9502@hotmail.com

Children Of The Grave
Black Sabbath - Master Of Reality


---------------------------------------------------------------------
---------------------------------------------------------------------
---------------------------------------------------------------------
-----------------------------------------------------5--4------------
----------7-7-7-------------7-7-7--------------------3--2------------
-0---0----0-0-0----0---0----0-0-0----0---0----0-0-0------------------



-------------------------------------------------
-------------------------------------------------
-------------------------------------------------
-7--7/9---12--12--5-5--5-5--7--7---7--7\---------
-5--5/7---10--10--3-3--3-3--5--5---5--5\---------
-------------------------------------------------



----------------------------------------------------------------------
----------------------------------------------------------------------
----------------------------------------------------------------------
----------------------------------------------------------------------
----------7-7-7-----------7-7-7-----------7-7-7--------5--------------
--0---0---0-0-0---0---0---0-0-0----0--0---0-0-0----0---3--------------



---15b16-------
---18b19-------
---------------
---------------
---------------
---------------



----------------------------------------------------------------------
----------------------------------------------------------------------
----------------------------------------------------------------------
----------------------------------------------------------------------
---------7-7-7----------7-7-7----------------------------5------------
-0---0---0-0-0---0---0--0-0-0----0--0--0-0-0--0-0-0--5h7--------------



----------------------------------------------------------------------
----------------------------------------------------------------------
----------------------------------------------------------------------
-----------------------2------------------------2---------------------
--------0--2--0--1--2-----------------0--1--2------1--0---------------
--0--3--------------------------0--3----------------------------------



----------------------------------------------------------------------
----------------------------------------------------------------------
----------------------------------------------------------------------
---9----12--9---------------------9---12--9---------------------------
---7----10--7--9--8---8--9-11-12--7---10--7--12-11--11-12-------------
---------------7--6---6--7--9-10-------------10--9---9-10-------------


Solo:
|--12--12-----12--12-----12-(12)(12)---------------------------
|--15^-15^----15^-15^----15^(15)(15)15p12----------------------
|----------------------------------------14^-12-12-14-12----12-
|--------------------------------------------------------14----
|--------------------------------------------------------------
|--------------------------------------------------------------


|------12---12-------------------|-----------------------------12-
|----12--15^---15p12-------------|---------------------------12---
|-14^---------------14^-(12--14)-|-12--12--------------12-14^-----
|--------------------------------|---14--14-12-14-12h14-----------
|--------------------------------|--------------------------------
|--------------------------------|--------------------------------


|------12----------------------------|-------------------------------------
|-15^------15p12---------------------|-------------------------------------
|---------------14^-14-12-14--12--12-|-------------------------------------
|-------------------------------14---|-14-12-14--12---12----------------12-
|------------------------------------|-------------14----14-12-10-12/14----
|------------------------------------|-------------------------------------


|---------------12----------------|-----------------------15----
|-------------12--15p12-----------|-------15-12-15-12-/17-------
|-------12-14^---------14^-12--12-|-14-12-----------------------
|-12h14----------------------14---|-----------------------------
|---------------------------------|-----------------------------
|---------------------------------|-----------------------------


|-17/18p15--17/18p15--17/18p15--17/18p15-|-17p15----15-----------------------
|----------------------------------------|------17----1715-------------------
|----------------------------------------|----------------16\1412-1412----12-
|----------------------------------------|-----------------------------14----
|----------------------------------------|-----------------------------------
|----------------------------------------|-----------------------------------


|------12----12----------------|---------------12-----12----------------
|--------15^-----15p12---------|-----------------15^-----15p12----------
|-14^-----------------14^^--14-|-12----12-14^------------------14^^p12--
|-------------------------14---|-----14---------------------------------
|------------------------------|----------------------------------------
|------------------------------|----------------------------------------


|-------------------------------|--------------12--------------------
|-------------------------------|-----------------15p12--------------
|-14-12----12----------------12-|-14-(12)-14^-----------14p12----12--
|-------14----14p12-14-12h14----|-----------------------------14-----
|-------------------------------|------------------------------------
|-------------------------------|------------------------------------


|-------------------------------------|------------------------------
|-------------------------------------|------------------------------
|-------------------------------------|--------------12--------------
|-14-12-14-12----12-------------------|-----12-12h14----14p12--------
|-------------14----14\12-10-12-10-12/|/14---------------------7--4--
|-------------------------------------|------------------------------

Ending:
|---12--12----14--14---15--15---16--16---17--17\-----------
|---15^-15^---17^-17^--18^-18^--19^-19^--20^---------------
|----------------------------------------------------------
|----------------------------------------------------------
|----------------------------------------------------------
|----------------------------------------------------------

OptimusPrime

Submitted by OptimusPrime at Sun 02 Dec, 2001 6:00 pm

Author: ?
Composer: ?
Publisher: ?
Language: English

Reactions

CommonCrawl [Bot]

Follow Muzikum