Black Sabbath

Black Sabbath
Annu Mundi (Guitar tab)

from - idol9502@hotmail.com

Annu Mundi
Black Sabbath - TYR


|-------0-----------0-----------0---------------------------
|-----3---3-------3---3-------3---3-------------------------
|---2-------2---2-------2---2-------2-----0-----0-0-3-0-----
|-0----------/3-----------0-------------2-----0-------------
|-------------------------------------3-----2---------------
|-----------------------------------------------------------


|-------0-----------0-----------0---------------------------
|-----3---3-------3---3-------3---3-------------------------
|---2-------2---2-------2---2-------2-----------------------
|-0----------/3-----------0-----------------3-2---0---------
|-------------------------------------3-2-1-----3-----------
|-----------------------------------------------------------


verse:
|-----------------------------------------------------------------
|-----------------------------------------------------------------
|-----------------------------------------------------------------
|-----------------------------------------------------------------
|-1-1----------------------------1-1-------------------1----------
|-----3-3-1-1-3-3-1-1-3-3-1-2-3~-----3-3-1-1-3-3-1-2-3---3~-1-3---

chorus:
|-----------------------------------------------------------
|---------------------------------------------9^------------
|-----------7-------8--8-8--8-8--8-8--------8---------------
|-5---5-5---7---8---8--8-8--8-8--8-8------------------------
|-5---5-5---5---8---6--6-6--6-6--6-6------------------------
|-3---3-3-------6-------------------------------------------


|-------------------------------
|---------------11--------------
|-----------7---10--12----------
|-5---5-5---7---8---12----------
|-5---5-5---5-------10----------
|-3---3-3-----------------------


Annu Mundi
|-------------------------------------------------------
|-------------------------------------------------------
|-7------7------7------7------7------7------------------
|-7------7------7------7------7------7------------------
|-5-5-5--5-5-5--5-5-5--5-5-5--5-5-5--5-5-5--------------
|-------------------------------------------------------

OptimusPrime

Submitted by OptimusPrime at Sun 02 Dec, 2001 6:00 pm

Author: ?
Composer: ?
Publisher: ?
Language: English

Reactions

CommonCrawl [Bot]

Follow Muzikum