Rage Against the Machine

Rage Against the Machine
01-killin In The Name Of (Bass tab)

hey rage fans im sure this rite so


g|-------------------------------------
d|-------------------------------------
a|----------------|-----6-6-6-----6-6-6- just work out how many time to
d|0---0---0---0---|0-0-0-----0-0-0----- this last bar.

verse
g|----------------
d|----3h4p3-------
a|-3h5-----5------
d|0----------2-3-2

chours
g|----4-----------
d|----------------
a|-3h5------------
d|0---------------

g|----3-----------
d|----------------
a|-3h5------------
d|0---------------

g|----2-----------
d|----------------
a|-3h5------------
d|0---------------0-3-2-3-2-3
then

g|----4-----------
d|----------------
a|-3h5------------
d|0---------------

g|----3-----------
d|----------------
a|-3h5------------
d|0---------------

g|----2-----------
d|----------------
a|-3h5------------
d|0---------------3-3-3-3-3-3


post chours

g|------
d|------ if u want u can add sum muted notes wen the guitar kicks in again
a|5-5--5
d|------


those who died........ part and the **** u i wont do wot u tell me part
g|------------
d|------------
a|5-5-5-5----5
d|--------3-5-

go bak to verse(there iz a little variation but il just slide on the d string)

thats all u need to no so just listen for timin and such

Copyrights
Author: ?
Composer: ?
Publisher: ?
More details
Language: English

Reactions

CommonCrawl [Bot]

Follow Muzikum