The Smashing Pumpkins
X (Guitar tab)

Freakleader7580@hotmail.com
off mellon collie
1/2 step down
(eb, Bb,Gb,Db,Ab,Eb)
a lighter distortion
than billy usually uses
both guitars play the same
thing, but it is quite noticible
when guitar 2 comes in. this is
a very do it your self tab because
just the riffs are here, kinda in
order of where they first appear,
but the song is just too long to
type it all out.


riff 1:
eb|-------------------------------------|
Bb|-------------------------------------|
Gb|--15---------------11----------------|
Db|---x---------------------------------|
Ab|--13----------------9----------------|
Eb|-----0-0-0-0-0-0-0----0-0-0-0-0-0-0--|
riff 2
eb|-------------------------------------
Bb|-------------------------------------
Gb|--15---------------11----------------
Db|---x---------------------------------
Ab|--13----------------9----------------
Eb|-----0-0-0-0-0-0-0----0-0-0-0-0-0-0--

------------------------|
------------------------|
-11-----11-11/12-12/14--|
------------------------|
--9------9--9/10-10/12--|
----0-0-----------------|
riff 3:
|-------------------|x3-------------------|------------|
|-------------------|---------------------|------------|
|-11----------------|-11----11/12-12\11---|------------|
|-------------------|---------------------|------------|
|--9----------------|--9-----9/12-12\11---|------------|
|----0-0-0-0-0-0-0--|----0-0------------0-|--3~~~--3~--|
riff 4:
|-------------------------|
|-------------------------|
|-------------------------|
|-------------------------|
|--4\2-2-2-2-2-2-2-2-2-2--|
|--2po-0-0-0-0-0-0-0-0-0--|
pm.....................
riff 5:
|-----------------------------------|
|-----------------------------------|
|-----------------------------------|
|-----------------------------------|
|--4-2-2-4-2-2-4-2-2-4-2-2-4-2-4-2--|
|--2-0-0-2-0-0-2-0-0-2-0-0-2-0-2-0--|
riff 6:
|---------0-----------------------|
|-------------0-------------------|
|---------------------------------|
|---------------------------------|
|---------------------------------|
|-2-0-0-0-0-0-0-0-2-0-0-2-3-3-2-0-|
riff 7:
|-------------------------------------|
|-------------------------------------|
|-14---------------11-------12---14---|
|-------------------------------------|
|-12---------------9--------10---12---|
|----0-0-0-0-0-0-0----0-0-0----0----0-|

|------------------|
|------------------|
|-15---------------|
|------------------|
|-13---------------|
|----0-0-0-0-0-0-0-|

|---------|
|---------|
|---------|
|---------|
|---------|
|-/17~~~~-|
slower part towrds the end
|---------------------------------|x2-------|
|---------------------------------|---------|
|---------------------------------|---------|
|---------------------------------|---------|
|---------------------------------|---------|
|-2-0-0-0-6-0-6-0-2-0-0-0-6-0-1~~-|-/14~----|
^^^^^
this riff keeps changing, just futher slides
just keep playing the last riff without the
slide at the end.

Copyrights
Author: ?
Composer: ?
Publisher: ?
More details
Language: English

Reactions

CommonCrawl [Bot]

Follow Muzikum