The Smashing Pumpkins
Czarina (Bass tab)

Song: Czarina
Artist: Smashing Pumpkins
Album: Ava Adore Single
Tunning: E A D G

Do not come in with Riff one until after Billy says "These Dusty Tears need
no place to cry"

__________ ______ _________________
/Riff 1 \ /Riff 2 \ /Riff 3 \
G|--6--------|---------|--------------------|
D|------4h6--|---6-----|--------------------|
A|4---4------|6--------|4--4-4-4------------|
E|-----------|---------|----------2--2-2-2--|

___________________________
/Riff 4 \
G|----------------------------|
D|---6-------3-4-4-3-1-3-4-6--|
A|6----4--6-------------------|
E|----------------------------|

____________________________________
/Riff 5 \
G|-------------------------------------|
D|3----------------6--4-3-1-3-4--3--1--|
A|---6-4-6-4---------------------------|
E|------------6-4----------------------|

_____________
/Riff 6 \
G|--------------|
D|--------------|
A|----8------8--|
E|6-6---6--6----|


Order the Riffs are played and the number of times you play them
Riff 1 (x2)
Riff 2 (x1)
Riff 1 (x1)
Riff 3 (x4)
Riff 4 (x1)
Riff 1 (x8)
Riff 2 (x1)
Riff 1 (x1)
Riff 3 (x8)
Riff 5 (x1)
Riff 4 (x1)
Riff 6 (x1)
Riff 1 (x8)
Riff 3 (x4)
Riff 5 (x4)

Copyrights
Author: ?
Composer: ?
Publisher: ?
More details
Language: English

Reactions

CommonCrawl [Bot]

Follow Muzikum