Metallica
02 - Master Of Puppets (Bass tab)

#

MASTER OF PUPPETS (Bassline)
As recorded by Metallica
(From the 1986 Album MASTER OF PUPPETS)

Words and Music by James Hetfield, Lars Ulrich, Kirk Hammet, and Cliff Burton
Transcribed by HaMsTr

Gtr I (E A D G) - 'Untitled'

Intro
Fast Rock Q=220
4/4
Gtr I
Q Q H q q H +W Q Q H
|------------|------------|------------|------------|
|------------|------------|------------|------------|
|------------|-5--4--3----|-(3)--------|------------|
|-0----------|------------|------------|-0----------|


W W H Q Q Q Q H
|----------|----------|------------||-------------|
|----------|----------|------------||o------------|
|----------|----------|------------||o------------|
|----------|----------|---------4--||--0----------|


q q H W H Q Q Q Q H
|------------|----------|-------------||------------|
|------------|----------|------------o||------------|
|-5--4--3----|----------|------------o||------------|
|------------|----------|---------1---||-0----------|


q q H Q E E E E E E E E E E E E E E Q Q H
|------------|----------------|-----------------||-------------|
|------------|----------------|-----------------||o------------|
|-5--4--3----|----3-3-3-3-3-3-|-3-3-3-3-3-3-3-3-||o------------|
|------------|----------------|-----------------||--0----------|


W W E E E E E E E E
|----------|----------|------------------||
|----------|----------|-----------------o||
|----------|----------|-----------------o||
|----------|----------|-3s2-0-3s2-0-3s2--||


E E E E E E E E E E E E E E E E E E E E E E E E
||------------------|-----------------|-----------------|
||o-----------------|-----------------|-----------------|
||o-----2-----3-----|-4-----3-----2-2-|-----2-----3-----|
||--0-1---0-1---0-1-|---0-1---0-1-----|-0-1---0-1---0-1-|


E E E E E E Q E E E E E E E E E E E E E E E E E E E E E E E E
|----------------|-----------------|-----------------|-----------------|
|----------------|-----------------|-----------------|-----------------|
|-4-----3-----2--|-----2-----3-----|-4-----3-----2-2-|-----2-----3-----|
|---0-1---1-0----|-0-1---0-1---0-1-|---0-1---0-1-----|-0-1---0-1---1-0-|


E E E E E E E E E E E E E E E E Q Q H H Q Q
|------------------||-----------------|------------|-------------|
|-----------------o||-----------------|------------|-------------|
|-----------------o||-----------------|------------|-------------|
|-3s2-0-3s2-0-3s2--||-3s2-0-3s2-0-3s2-|-0----------|---------8\--|


5/8
E E E E E E E E E E E E E E E E E E E E E E E E E E E E E
||------------------|-----------------|-----------------|-------------||
||o-----------------|-----------------|-----------------|------------o||
||o-----------------|-----------------|-----------------|------------o||
||--0-0-0-0-0-0-0-0-|-0-3h5-0-6s5-3h5-|-0-0-0-0-0-0-0-0-|-0-3s5-3s5---||


1st, 2nd, 3rd Verses
$
4/4 5/8
E E E E E E E E E E E E E E E E E E E E E E E E E E E E E
|-----------------|-----------------|-----------------|-----------|
|-----------------|-----------------|-----------------|-----------|
|-----------------|-----------------|-----------------|-----------|
|-0-0-0-0-0-0-0-0-|-0-3h5-0-6s5-3h5-|-0-0-0-0-0-0-0-0-|-0-3s5-3s5-|


4/4 5/8
E E E E E E E E E E E E E E E E E E E E E E E E E E E E E
|-----------------|-----------------|-----------------|-----------|
|-----------------|-----------------|-----------------|-----------|
|-----------------|-----------------|-----------------|-----------|
|-0-0-0-0-0-0-0-0-|-0-3h5-0-6s5-3h5-|-0-0-0-0-0-0-0-0-|-0-3s5-3s5-|


4/4 5/8
E E E E E E E E E E E E E E E E E E E E E E E E E E E E E
|-----------------|-----------------|-----------------|-----------|
|-----------------|-----------------|-----------------|-----------|
|-----------------|-----------------|-----------------|-----------|
|-0-0-0-0-0-0-0-0-|-0-3h5-0-6s5-3h5-|-0-0-0-0-0-0-0-0-|-0-3s5-3s5-|


4/4 5/8
E E E E E E E E E E E E E E E E E E E E E E E E E E E E E
|-----------------|-----------------|-----------------|-----------|
|-----------------|-----------------|-----------------|-----------|
|-----------------|-----------------|-----------------|-----------|
|-0-0-0-0-0-0-0-0-|-0-3h5-0-6s5-3h5-|-0-0-0-0-0-0-0-0-|-0-3s5-3s5-|


4/4 5/8
E E E E E E E E E E E E E E E E E E E E E E E E E E E E E
|-----------------|-----------------|-----------------|-----------|
|-----------------|-----------------|-----------------|-----------|
|-----------------|-----------------|-----------------|-----------|
|-2-2-2-2-2-2-2-2-|-2-5s7---8s7-5s7-|-2-2-2-2-2-2-2-2-|-2-5s7-5s7-|


4/4 5/8
E E E E E E E E E E E E E E E E E E E E E E E E E E E E E
|-----------------|-----------------|-----------------|-----------|
|-----------------|-----------------|-----------------|-----------|
|-----------------|-----------------|-----------------|-----------|
|-2-2-2-2-2-2-2-2-|-2-5s7---8s7-5s7-|-2-2-2-2-2-2-2-2-|-2-5s7-5s7-|


Pre - Chorus
4/4
E E E E E E E E E E E E Q Q Q. E H E E E E Q Q
|-----------------||---------------|-------------|--------------|
|-----------------||---------------|-------------|--------------|
|-----------------||-7-------5--7--|-------------|-3-3-3-3-3--2-|
|-7-7-7-7-7-7-7-7-||---0-0-0-------|-0----2-3----|--------------|


E E E E Q Q E E E E Q Q Q. E H E E E E Q Q
|---------------||----------------|-------------|---------------|
|---------1-----||o---------------|-------------|---------------|
|-3-3-3-3----2--||o-7-------5--7--|-------------|-3-3-3-3-3--2--|
|---------------||----0-0-0-------|-0----2-3----|---------------|


1.,2. 3.
E E E E Q Q E E E E E E E E Q Q H Q Q H
|----------------||-----------------|------------|------------|
|---------1-----o||-4-2-1---1-------|------------|------------|
|-3-3-3-3----2--o||-----------3-2---|------------|------------|
|----------------||-----------------|-0--0-------|-1--1-------|


Chorus
2/4 4/4
H. E E E E E E Q E E +E E Q E E E E E S S Q
|-------------|---------|-----------------|------------------|
|-------------|---------|-----------------|------------------|
|-------------|---------|-----------------|------------------|
|-0-------0-0-|-2p0-0-0-|-3--3-3-(3)-3-3--|-3-3-3-3-3-3-3-3--|


2/4 4/4
Q E E E E E E E E E E Q E E +E E Q +W
|----------------|---------|-----------------|--------|
|----------------|---------|-----------------|--------|
|-3--2-3-3-0-0-0-|-2-0-0-0-|-0--0-0-(0)-0-0--|-(0)----|
|----------------|---------|-----------------|--------|


2/4 4/4
H +E E E E E E E E Q E E +E E Q H +E E E E
|----------------|---------|-----------------|----------------|
|----------------|---------|-----------------|----------------|
|-5----(5)-------|-3-------|--------------6--|-7----(7)-7-7-7-|
|----------3-3-3-|---3-3-3-|-7--7-7-(7)-7----|----------------|


To Coda
To Coda
2/4 4/4 2/4 4/4
q E E Q E E +E E Q E E Q Q Q H
|--------|-----------------|--------|------------|
|--------|-----------------|--------|------------|
|-5------|-3--3-3-(3)-3-3--|-3-3-3--|------------|
|----0-0-|-----------------|--------|-0--0-------|


2/4 4/4
Q Q H H +E E E E E E E E Q E E +E E Q
|------------|----------------|---------|-----------------|
|------------|----------------|---------|-----------------|
|------------|----------------|---------|-3--3-3-(3)-3-3--|
|-1--1-------|-0----(0)-0-0-0-|-2p0-0-0-|-----------------|


E E E E E E E E Q Q H Q Q H
|-----------------|------------|------------||
|-----------------|------------|------------||
|-3-3-2-2-0-0-----|------------|------------||
|-------------3-3-|-0--0-------|-1--1-------||


E E E E E E E E E E E E E E E E E E E E E E E E
||------------------|-----------------|-----------------|
||o-----------------|-----------------|-----------------|
||o-----2-----3-----|-4-----3-----2-2-|-----2-----3-----|
||--0-1---0-1---0-1-|---0-1---0-1-----|-0-1---0-1---0-1-|


1. 2.
D.S. al Coda &
$
E E E E E E Q E E E E E E E E E E E E E E E E W W
|-----------------||-----------------|-----------------||----------|------|
|----------------o||-----------------|-----------------||----------|------|
|-4-----3-----2--o||-----------------|-----------------||----------|------|
|---0-1---1-0-----||-3s2-0-3s2-0-3s2-|-3s2-0-3s2-0-3s2-||----------|------|


Interlude
Slower Q=110
2/4 4/4 2/4 4/4
H Wx3 H H W H H
|------|------------|------|------|----------|-----------|
|------|------------|------|------|----------|-----------|
|------|------------|------|-7----|-3--------|-0----2----|
|------|------------|------|------|----------|-----------|


2/4 4/4
H E E E E Q. E E E E E E Q S S E E E E
|------||----------|----------------|------------------|
|------||o---9-9---|----------------|------------------|
|-6----||o-7-----7-|-5----5-5-5---5-|-3-3--3-3-3-3-0-3-|
|------||----------|------------5---|------------------|


Guitar Solo 1
2/4 4/4
Q. E E S S E E S S S S E E E E E E Q. S S E E a E E
|------------------|--------------||-||----------|---------------------|
|------------------|-------------o||-||o---9-----|---------------------|
|-0----0-2-2-2-0-2-|-6-6-6-6-0-6-o||-||o-7---7-7-|-5----5-5-5-5-5s7-5--|
|------------------|--------------||-||----------|---------------------|


2/4
E Q S S E E E E Q. E E S S E E S S S S E E
|------------------|------------------|---------------||
|------------------|------------------|--------------o||
|-3-3------3-3-0-3-|-0----0-2-2-2-0-2-|-6-6-6-6-0-6--o||
|------3-3---------|------------------|---------------||


4/4
E E E E Q. E E E E E E Q S S E E E E
||----------|----------------|------------------|
||o---9-9---|----------------|------------------|
||o-7-----7-|-5----5-5-5---5-|-3-3--3-3-3-3-0-3-|
||----------|------------5---|------------------|


2/4
Q. E E S S E E S S S S E E
|------------------|--------------||
|------------------|-------------o||
|-0----0-2-2-2-0-2-|-6-6-6-6-0-6-o||
|------------------|--------------||


4/4
E E E E E E E E E E E E E E E E E E E E E E E E E E E E
||----------|-----------------|-----------------|-----------------|
||o---------|-----------------|-----------------|-----------------|
||o---------|-----------------|-----------------|-----------------|
||--0-0-0-0-|-2-2-2-2-2-2-2-2-|-3-3-3-3-3-3-3-3-|-5-5-5-5-7-7-7-7-|


2/4 4/4
E E E E E E E E E E E E E E E E E E E E E E E E E E E S S
|----------||-----------------|-----------------||--------------------|
|---------o||-----------------|-----------------||o-------------------|
|-6-6-6-6-o||-----------------|-----------------||o---------------4-4-|
|----------||-0-0-0-0-0-0-0-0-|-0-0-0-0-0-0-0-0-||--2-2-3-2-2-2-3-----|


E E E E E E E E E E E E E E E S S
|------------------||-------------------|
|-----------------o||-------------------|
|---------------4-o||---------------4-4-|
|-2-2-3-2-2-2-3----||-2-2-3-2-2-2-3-----|


E E E E E E E E E E E E E E E S S E E E E E E E E
|-----------------|-------------------|------------------|
|-----------------|-------------------|------------------|
|---------------4-|---------------4-4-|---------------4--|
|-2-2-3-2-2-2-3---|-2-2-3-2-2-2-3-----|-2-2-3-2-2-2-3----|


Q=220
E E E E E E E S S E E E E E E E E Q Q E E E E +E E Q E E Q
|-------------------|-----------------|---------------|-----------------|
|-------------------|-----------------|---------------|-----------------|
|---------------4-4-|---------------4-|---------------|-----------------|
|-2-2-3-2-2-2-3-----|-2-2-3-2-2-2-3---|-3--3--3-3-3-3-|-(3)-3-3--3-3-3--|


Guitar Solo 2
Q Q E E Q E E E E E E E E E E E E E E E E E E E E E E E E
|--------------|-----------------||------------------|-----------------|
|--------------|-5-4-2-2-0-------||o-----------------|-----------------|
|--------------|-----------4-2-0-||o-----------------|-----------------|
|-2--2--2-2-2--|-----------------||--0-0-0-0-0-0-0-0-|-0-3h5-0-6s5-3h5-|


5/8 4/4
E E E E E E E E E E E E E 4x E E E E E E E E
|-----------------|------------||-||------------------|
|-----------------|-----------o||-||o-----------------|
|-----------------|-----------o||-||o-----------------|
|-0-0-0-0-0-0-0-0-|-0-3s5-3s5--||-||--2-2-2-2-2-2-2-2-|


5/8 4/4
E E E E E E E E E E E E E E E E E E E E E E E E E E E E E
|-----------------|-----------------|------------||-----------------|
|-----------------|-----------------|-----------o||-----------------|
|-----------------|-----------------|-----------o||-----------------|
|-2-5s7---8s7-5s7-|-2-2-2-2-2-2-2-2-|-2-5s7-5s7--||-7-7-7-7-7-7-7-7-|


E E E E E E E E E E E E E E E E E E E E E E E E E E E E E E Q
||------------------|-----------------|-----------------|----------------||
||o-----------------|-----------------|-----------------|---------------o||
||o-----------------|-------------2-2-|-----------------|-------------2-o||
||--0-0-1-0-0-1-0-0-|-1-0-0-1-0-0-----|-0-0-1-0-0-1-0-0-|-1-0-0-1-0-0----||


E E E E E E E E E E E E E E E E E E Q +Q. S S
|-----------------|-----------------|------------------|
|-----------------|-------------0-2-|-4-5--------------|
|-----------------|-------0-2-3-----|-----3--(3)---3-3-|
|-0-0-0-0-0-0-0-0-|-0-2-3-----------|------------------|


E E E E E E E E E E E E E E E S S E E E E E E E E E E Q +Q. S S
|-----------------||--------------------|-----------------|--------------------|
|-------0---------||o-------------------|-------------0-2-|-4-5----------------|
|-3-2-3---3-2-----||o-------------------|-------0-2-3-----|-----3--(3)---3-3---|
|-------------3-2-||--0-0-0-0-0-0-0-0-0-|-0-2-3-----------|--------------------|


4/4
E E E E E E E E 3x H.. S S
|------------------||--------------|
|-------0---------o||--------------|
|-3-2-3---3-2-----o||----------3-3-|
|-------------3-2--||-0------------|


E E E E E E E E Q Q H W W
|-----------------||-------------|----------|------|
|-------0---------||o------------|----------|------|
|-3-2-3---3-2-----||o------------|----------|------|
|-------------3-2-||--0----------|----------|------|


D.S. al Dbl. Coda &&
E E E E E E E E E E E E E E E E E E E E E E E E E E E E E E E E
|------------------||-----------------||------------------|-----------------|
|-----------------o||-----------------||o-----------------|-----------------|
|-----------------o||-----------------||o-----------------|-----------------|
|-3s2-0-3s2-0-3s2--||-3s2-0-3s2-0-3s2-||--0-0-0-0-0-0-0-0-|-0-3h5-0-6s5-3h5-|


5/8 4/4
E E E E E E E E E E E E E 4x W E E E E E E E E W
|-----------------|------------||-------|-----------------|----*|
|-----------------|-----------o||-------|-----------------|----*|
|-----------------|-----------o||-------|-----------------|----*|
|-0-0-0-0-0-0-0-0-|-0-3s5-3s5--||-------|-3s2-0-3s2-0-3s2-|-0--*|


Duration Legend
---------------
W - whole; H - half; Q - quarter; E - 8th; S - 16th; T - 32nd; X - 64th; a - acciaccatura
+ - note tied to previous; . - note dotted; .. - note double dotted
Uncapitalized letters represent notes that are staccato (1/2 duration)
Irregular groupings are notated above the duration line
Duration letters will always appear directly above the note/fret number it represents the
duration for. Duration letters with no fret number below them represent rests. Multi-
bar rests are notated in the form Wxn, where n is the number of bars to rest for. Low
melody durations appear below the staff

Tablature Legend
----------------
h - hammer-on
p - pull-off
b - bend
pb - pre-bend
r - bend release (if no number after the r, then release immediately)
/\ - slide into or out of (from/to "nowhere")
s - legato slide
S - shift slide
- natural harmonic
[n] - artificial harmonic
n(n) - tapped harmonic
~ - vibrato
tr - trill
T - tap
TP - trem. picking
PM - palm muting
\n/ - tremolo bar dip; n = amount to dip
\n - tremolo bar down
n/ - tremolo bar up
/n\ - tremolo bar inverted dip
= - hold bend; also acts as connecting device for hammers/pulls
- volume swell (louder/softer)
x - on rhythm slash represents muted slash
o - on rhythm slash represents single note slash

Misc Legend
-----------
| - bar
|| - double bar
||o - repeat start
o|| - repeat end
*| - double bar (ending)
: - bar (freetime)
$ - Segno
& - Coda
Tempo markers - = BPM(8/16=s8/s16), where s8 = swing 8ths, s16 = swing 16ths


***************************************************************************************
* Generated using Power Tab Editor by Brad Larsen - http://powertab.guitarnetwork.org *
***************************************************************************************

Copyright� HaMsTr Inc. 2003

Copyrights
Author: ?
Composer: ?
Publisher: ?
More details
Language: English

Reactions

CommonCrawl [Bot]

Follow Muzikum