Metallica
Harvester Of Sorrow Solo (Guitar tab)

|========================================================|
| Title : Harvester of Sorrow Solo |
| Artist : MetallicA |
| Album : ...And Justice For All |
| Transcribed by : Ross Goodin phrocow@hotmail.com |
|========================================================|

Legend
------

h = hammer-on
p = pull-off
b = bend
r = bend release
/ = slide up/down
= natural harmonic
[5] = artifical harmonic
~ = vibrato
tr = trill

This is my first tab and me second year
playing so go easy on me i dont know
if it is correct or not but i figured
that it could give you a rough idea on
how it goes.

tune to E

E|-------------------------------------15b~~---|
B|15~~---15b~~---16b~~---15b~~---12------------|
G|----------------------------------14---------|
D|---------------------------------------------|
A|---------------------------------------------|
E|---------------------------------------------|

[ Repeat this a few times ]
E|12h14p12----------------------------------------------------------|
B|---------14-12h14p12----------------------------------------------|
G|---------------------14-12h14p12----14-12h14p12----14-12h14p12----|
D|---------------------------------14-------------14-------------14-|
A|------------------------------------------------------------------|
E|------------------------------------------------------------------|


E|----------------------------------------------------15b~~|
B|-------------------------------------------12-14-15------|
G|14~~--12---------------------------12-14-15--------------|
D|---------14-12h14p12-------12--14------------------------|
A|---------------------14--14------------------------------|
E|---------------------------------------------------------|


E|-15-14-14h15p14-------14h15p14--10-10/12--|
B|------------------------------------------|
G|------------------------------------------|
D|------------------------------------------|
A|------------------------------------------|
E|------------------------------------------|

Copyrights
Author: ?
Composer: ?
Publisher: ?
More details
Language: English

Reactions

CommonCrawl [Bot]

Follow Muzikum