Eels

Eels
Novocaine For The Soul (Bass tab)

FTH80:G D A E ; Generated by Fast Tab, do not erase
====================
>From : Robin Taylor
Artist : The Eels
Bass Performance: Unknown bass player.
Comments: : ---
Strings: E ,A ,D ,G
Symbols explanations:
H: hammer on P: pull off
+: slap .: pop
\: slide up /: slide down
--x~~x~~x: triplets
====================

Novocaine For The Soul by The Eels.

There are no repeated bars apart from the last one which is noted, so just play the
whole tab through til the end of the song.

Chorus.

G------------------------------------------------------------------------
D------------------------------------------------------------------------
A-4--4----------4--4------------2--2--------4--4--4-4--2--2--------4--4--
E-------22-2--2--------2---0h2--------22-2-------4-----------22-2--------



Verse 1.
G-------------------------------------------------------------------------
D-------------------------------------------------------------------------
A-4--4----------4--4----------4--4----------4--4------------4--4----------
E-------22-2--4-------22-2--4-------22-2--4-------22---0h2--------22-2----



G----------------------------------------------------------------------------
D----------------------------------------------------------------------------
A-4--4--------2--2--------4--4---4-4----2--2--------4--4---4-4----2--2-------
E-------22--4-------22-2-------4--------------22-2-------4--------------22-2-



Verse 2.
G----------------------------------------------------------------------------
D----------------------------------------------------------------------------
A-7-7--------9-9--8--7-7--------9-9-/11\9--8--7-7--------9-9--8--------------
E------77-----------------77-7---------------------77-7-----------0-0--------



Interlude/Guitar solo.
G-------------------------------------------------------------------------------
D-------------------------------------------------------------------------------
A-4--4----------4--4----------4--4----------4--4----------4--4----------4--4----
E-------22-2--4-------22----4-------22-2--4-------22----4-------22-2--4-------2-


G----------------------------------
D----------------------------------
A---4--4----------4--4/8\4---------
E-4-------22-2--4-----------2-2--2-


Chorus repeated til end.
G--------------------------
D--------------------------
A-2--2---------4--4----4-4-
E------22-2--4-------4-----

OptimusPrime

Submitted by OptimusPrime at Sun 01 Dec, 2002 9:44 am

Author: ?
Composer: ?
Publisher: ?
Language: English

Reactions

CommonCrawl [Bot]

Follow Muzikum