Kill Hannah

Kill Hannah
Lovesick (Guitar tab)

Lovesick
Kill Hannah
legendarycoma@yahoo.com

All I ever figured out was the intro, and until like tomorrow, I'm not going
to check on this. Like anybody aside from maybe one or two people is going
to care anyhow.

Intro
e|-0-0-0-0-0-0-0-0-0-0-0-0-0-0-0-0-0-0-0-0-0-0-0-0-0-0-0-0-0-0-0-0-|
A|-5-5-5-5-5-5-5-5-3-3-3-3-0-0-0-0-8-8-8-8-7-7-7-7-5-5-5-5-3-3-5-3-|
D|-----------------------------------------------------------------|
G|-----------------------------------------------------------------|
B|-----------------------------------------------------------------|
E|-----------------------------------------------------------------|

e|-0-0-0-0-0-0-0-0-0-0-0-0-0-0-0-0-0-0-0-0--0--0--0--0--0--0--0--0--0--0--0--0-|
A|-5-5-5-5-5-5-5-5-3-3-3-3-0-0-0-0-8-8-8-8-10-10-10-10-12-12-12-12-15-15-15-15-|
D|-----------------------------------------------------------------------------|
G|-----------------------------------------------------------------------------|
B|-----------------------------------------------------------------------------|
E|-----------------------------------------------------------------------------|

OptimusPrime

Submitted by OptimusPrime at Sun 30 Oct, 2005 9:27 am

Author: ?
Composer: ?
Publisher: Not On Label (Kill Hannah Self-released)
Published in: 1997
Language: English
Available on: Here Are the Young Moderns (1998)

Reactions

CommonCrawl [Bot]

Follow Muzikum