Kid Rock
F K You Blind (Guitar tab)

Artist: Kid Rock
Song: F**k you Blind
Album: The History of Rock
Tabber: Mark (gingerfish@gmx.net)
Standard Tuning

Intro (play once)
E----------------------------------------------------------------------------�
B----------------------------------------------------------------------------�
G----------------------------------------------------------------------------�
D----------------------------------------------------------------------------�
A----------5-----------------------------------------------------------------�
E---7-7-7---7----------------------------------------------------------------�

Main Riff
E----------------------------------------------------------------------------�
B----------------------------------------------------------------------------�
G----------------------------------------------------------------------------�
D----------------------------------------------------------------------------�
A----------5-------------5--------------5----5-7--7--7^--5-------------------�
E---7-7-7----7-----7--7----7-----7-7-7----7------------------7---------------�

Second Riff
E----------------------------------------------------------------------------�
B----------------------------------------------------------------------------�
G----------------------------------------------------------------------------�
D---------------X-X------------ X-X------------------------------------------�
A----------5----X-X-------5-----X-X---------5----5-7--7--7^--5---------------�
E---7-7-7----7--X-X--7--7----7--X-X--7-7-7----7-----------------7------------�

Outro
E----------------------------------------------------------------------------�
B----------------------------------------------------------------------------�
G----------------------------------------------------------------------------�
D----------------------------------------------------------------------------�
A----------5-----------------------------------------------------------------�
E---7-7-7---7----------------------------------------------------------------�

Copyrights
Author: ?
Composer: ?
Publisher: ?
More details
Language: English

Reactions

CommonCrawl [Bot]

Follow Muzikum