The Cure
Uyea Sound (Guitar tab)

#
From: L'Etat Morbide
Date: Mon, 12 Jun 1995 14:52:20 +0100
Subject: TAB:'UEYA SOUND' - The Cure (from the limited ed. tape Lost Wishes)

WARNING : THIS IS NOT FINISHED ... BUT THERE IS NOT VERY MUCH TO ADD ..

In a week I will have left the net so ... as I was working on this track
and that's the work os nearly finished , I've posted my file and ... I
hope that it will please somebody out there ...
Best regards for everyone .... thanx for all the tabs you
posted ..

---------------------------------cut here -----------------------------------
CURE - UYEA SOUND (From the limited edition tape
'Lost Wishes' - recorded during the Wish album sessions)
- - - - - - -
tabbed by Olivier GOYET


F6
guitar 1 . . . 2 . . . 3 . . . 4 . . . 1 . . . 2 . . . 3 . . . 4 . . . '
D ------------------------------------------0-----------------------
A ------------------------------0-0---3-3-----0---------------------

F6
guitar 1 . . . 2 . . . 3 . . . 4 . . . 1 . . . 2 . . . 3 . . . 4 . . . '
D ------------------------------------------0-----------------------
A ------------------------------0-0---3-3-----0---------------------

Bb6
guitar 1 . . . 2 . . . 3 . . . 4 . . . 1 . . . 2 . . . 3 . . . 4 . . . '
D ------------------------------------------0-----------------------
A ------------------------------0-0---3-3-----0---------------------

F6
guitar 1 . . . 2 . . . 3 . . . 4 . . . 1 . . . 2 . . . 3 . . . 4 . . . '
D ------------------------------------------0-----------------------
A ------------------------------0-0---3-3-----0---------------------

gtr B ------------------------------------------------3-----1-----------
for G ------------------------------------------------------------2-----
kbd

F6
guitar 1 . . . 2 . . . 3 . . . 4 . . . 1 . . . 2 . . . 3 . . . 4 . . . '
D ------------------------------------------0-----------------------
A ------------------------------0-0---3-3-----0---------------------

gtr B 1-----------------------------------------------3-----1-----------
for G 0-----2-------------------------------------------------------2---
kbd

F6
guitar 1 . . . 2 . . . 3 . . . 4 . . . 1 . . . 2 . . . 3 . . . 4 . . . '
D ------------------------------------------0-----------------------
A ------------------------------0-0---3-3-----0---------------------

gtr E ------------------------------------------------------1-----3-----
for B 1-----------------------------------------------3-----------------
kbd G 0-----2-----------------------------------------------------------

Bb6
guitar 1 . . . 2 . . . 3 . . . 4 . . . 1 . . . 2 . . . 3 . . . 4 . . . '
D ------------------------------------------0-----------------------
A ------------------------------0-0---3-3-----0---------------------

gtr E 1---------------------------------------------3-5-----3-----1----
for B -----------------------------------------------------------------
kbd G 3----------------------------------------------------------------

F6
guitar 1 . . . 2 . . . 3 . . . 4 . . . 1 . . . 2 . . . 3 . . . 4 . . . '
E ----------------------------------------------------------1-1-3---
B ------------------------------------------------------------------
G ------------------------------------------------------------------
D ------------------------------------------0---------------3-3-5---
A ------------------------------0-0---3-3-----0---------------------

gtr E 1---------------------------------------------------------1-1-3---
for B ----------------3-----1-------------------------------------------
kbd G 2-----------------------------------------------------------------


Gm7 Bb
guitar 1 . . . 2 . . . 3 . . . 4 . . . 1 . . . 2 . . . 3 . . . 4 . . . '
E 5-----------------1-1-3-5---------------------------------1-1-3--
B -----------------------------------------------------------------
G -----------------------------------------------------------------
D 7-----------------3-3-5-7---------------------------------3-3-5--
A -----------------------------------------------------------------

gtr E 1-----------------1-1-3-1---------------------------------1-1-3---
for B ------------------------------------------------------------------
kbd G 0-----------------------3------------------------------------------



F6
guitar 1 . . . 2 . . . 3 . . . 4 . . . 1 . . . 2 . . . 3 . . . 4 . . . '
E 5-----------------------------------------------------------------
B ------------------------------------------------------------------
G ------------------------------------------------------------------
D 7-----------------------------------------------------------------
A ------------------------------------------------------------------


gtr E 1-----------------------------------------------------------------
for B ----------------3-----1-------------------------3-----1-----------
kbd G 2-----------------------------------------------------------2-----


F6
guitar 1 . . . 2 . . . 3 . . . 4 . . . 1 . . . 2 . . . 3 . . . 4 . . . '
D ------------------------------------------0-----------------------
A ------------------------------0-0---3-3-----0---------------------

gtr B 1-----------------------------------------------3-----1-----------
for G 0-----2-------------------------------------------------------2---
kbd

F6
guitar 1 . . . 2 . . . 3 . . . 4 . . . 1 . . . 2 . . . 3 . . . 4 . . . '
D ------------------------------------------0-----------------------
A ------------------------------0-0---3-3-----0---------------------

gtr E ------------------------------------------------------1-----3-----
for B 1-----------------------------------------------3-----------------
kbd G 0-----2-----------------------------------------------------------

Bb6
guitar 1 . . . 2 . . . 3 . . . 4 . . . 1 . . . 2 . . . 3 . . . 4 . . . '
D ------------------------------------------0-----------------------
A ------------------------------0-0---3-3-----0---------------------

gtr E 1---------------------------------------------3-5-----3-----1----
for B ------------1-3--------------------------------------------------
kbd G 3----------------------------------------------------------------

F6
guitar 1 . . . 2 . . . 3 . . . 4 . . . 1 . . . 2 . . . 3 . . . 4 . . . '
E ----------------------------------------------------------1-1-3---
B ------------------------------------------------------------------
G ------------------------------------------------------------------
D ------------------------------------------0---------------3-3-5---
A ------------------------------0-0---3-3-----0---------------------

gtr E 3-----1---------------------------------------------------1-1-3---
for B ----------------------1-------------------------------------------
kbd G 2-----------------------------------------------------------------


Gm7
guitar 1 . . . 2 . . . 3 . . . 4 . . . 1 . . . 2 . . . 3 . . . 4 . . . '
E 5-----------------1-1-3-5---------------------------------1-1-3--
B -----------------------------------------------------------------
G -----------------------------------------------------------------
D 7-----------------3-3-5-7---------------------------------3-3-5--
A -----------------------------------------------------------------

gtr E 1-----------------1-1-3-1---------------------------------1-1-3---
for B ------------------------------------------------------------------
kbd G 0-----------------------3------------------------------------------



F6
guitar 1 . . . 2 . . . 3 . . . 4 . . . 1 . . . 2 . . . 3 . . . 4 . . . '
E 5-------------------------------------------------5-5-3-3-1-1---
B --------------------------------------------------------------3-
G ----------------------------------------------------------------
D 7-------------------------------------------------7-7-5-5-3-3---
A --------------------------------------------------------------0-


gtr E 1-----------------------------------------------------------------
for B ------------------------------------------------------------------
kbd G 2-----------------------------------------------------------------

F6
.............................to find ...............................


. . . . (to be finished ....)

============^>

Copyrights
Author: ?
Composer: ?
Publisher: ?
More details
Language: English

Reactions

CommonCrawl [Bot]

Follow Muzikum