Sevendust
T (Guitar tab)

C#-------------------------------------------
G#-------------------------------------------
E----------------------;/-------------------- REPEAT 3X
B-------------------------------------------- ( ;/ IS A 32ND REST)
F#-------------------------------------------
B--4-(4)-4---4-(4)-4-4---4-(4)-4---4(4)-4-4--
^ ^ ^ ^
1/2 1/2 1/2 1/2

C#----------------------0----------
G#----------------------0----------
E-----------------------6----------
B----------------------------------
F#---------------------------------
B--4-(4)-4---4-(4)-4-------0-0-0-0-
^ ^ p.m.
1/2 1/2

Verse A section:
C#-----------------------------X/----
G#--------------------------X/-------
E------------------------X/---------- REPEAT 3X
B---------------------X/-------------
F#-----------------------------------
B---X-X-X-X-X-X-X-X------------------
Guitar 1 Guitar 2
w/ whammy Pick scrape up neck

C#-------------------------------
G#-------------------------------
E-------------------------4---3-- (*/ IS A 16TH REST)
B--------------------*/---2---1--
F#------------------------2---1--
B---X-X-X-X-X-X-X-X-------2---1--
(slide down)

Verse B section:
C#------------------------------
G#------------------------------
E------------------------4---3-- REPEAT 3X
B--------------------*/--2---1--
F#-5-5-5-5-5-5-5-3-------2---1--
B--5-5-5-5-5-5-5-3-------2---1--
p.m. - - - -| (slide down)

C#--------------------------
G#--------------------------
E---------------------------
B---------------------------
F#-5-5-5-5-5-5--------------
B--5-5-5-5-5-5--3---2---1---
p.m. - - - |

Pre-Chorus:
Low B--0-000-00-0-00-----
p.m.

Chorus:
Play the "Intro." section 2X
At end of 2nd time around is:

C#--0-----------0-----------0-----
G#--0-----------0-----------0-----
E---6-----------6-----------6-----
B---------------------------------
F#--------------------------------
B-----0-0-----0----0-0----0---0-0-
All open B's are p.m.


2nd Verse: See 1st verse

2nd Chorus: See Previous chorus

Bridge:
Low B--0-0---0-0-0-0-0--0-0--- (you can gigure the rhythm)

Bridge "solo"
C#-----------------------------|-----------------------------
G#--7-7---7-7-7-7-7-7-7--X-X-X-|-9-9---9-9-9-9-5-5-5--X-X-X--
E------------------------X-X-X-|----------------------X-X-X--
B---4-4---4-4-4-4-4-4-4--X-X-X-|-6-6---6-6-6-6-2-2-2--X-X-X--
F#-----------------------------|-----------------------------
B------------------------------|-----------------------------

C#-----------------------------|----------------------------
G#--7-7---7-7-7-7-7-7-7--X-X-X-|-9-9---9-9-9-9--12-12-12-12-
E------------------------X-X-X-|----------------------------
B---4-4---4-4-4-4-4-4-4--X-X-X-|-6-6---6-6-6-6--9--9--9--9--
F#-----------------------------|----------------------------
B------------------------------|----------------------------


Verse 3: Play A section of previous verses.
3rd Verse B section:
C#----------------------------
G#----------------------------
E------------------4----------
B--XX-XXX----------2--1------- REPEAT 4X
F#-XX-XXX----------2--1-------
B--XX-XXX---2--1---2--1-------

Copyrights
Author: ?
Composer: ?
Publisher: ?
More details
Language: English

Reactions

CommonCrawl [Bot]

Follow Muzikum