R.E.M.
Talk About The Passion Ver 2 (Bass tab)

"Talk About The Passion"

From: Norris Brady Thomas (Brady.Norris@Colorado.EDU)

Verse (endings for each
of the four repeats)
G---------------------------------------------|-----|-----|---|-0-0--
D-0---0-0---0--0---0-0---0--------------------|-----|-----|---|------
A---------------------------3---3---2--0---0--|-0h3-|-0h3-|-0-|------
E---------------------------------------------|-----|-----|---|------

Chorus

G------------------------------------------------------------------
D-------------------------------0-2---2-2---2-2-2-2---2-2---2-0h2--
A-0---0-0---0-0-0-0---0-0---0-0------------------------------------
E------------------------------------------------------------------

Pre-chorus

(cello---------------------) (slide second time only)
G-------------------------------------
D-3----2----3----2----3----2---s/5-5--
A-------------------------------------
E-------------------------------------

Bridge

G--------------------------------------------------
D-0---0-0---0--0---0-0---0-------------------------
A---------------------------3---3---2--0---0--2-3--
E--------------------------------------------------

G--------------------------------------------------
D-0---0-0---0--0---0-0---0-------------------------
A---------------------------3---3---2--0---0--0-0--
E--------------------------------------------------

Copyrights
Author: ?
Composer: ?
Publisher: ?
More details
Language: English

Reactions

CommonCrawl [Bot]

Follow Muzikum