R.E.M.
Strange Currencies Ver 2 (Bass tab)

Strange Currencies

From: Dinh Khiem Nguyen (dinhng@stud.unit.no)

And I don't know what you .........................

G-|------------|----------------|---------------|-------------|
D-|------------|--------------3-|-------------0-|--2--3--2--0-|
A-|--3----3----|----0-2-3---3---|----0-2-3--3---|-------------|
E-|---------1--|--3-------------|--3------------|-------------|


C G C Dm C G
REF. These words....
G-|----------------|-------------0-|---------------|-------------|----0-----0-|
D-|--------------3-|----3-3--2-3---|-------------3-|-----0-----0-|-2-3----0---|
A-|---0-2-3--------|-3-------------|---0-2-3-------|--3-----0----|------------|
E-|-3---------3----|---------------|-3---------3---|-------------|------------|


The fool might be....

G-|------------|----------------|---------------|-------------|
D-|------------|--------------3-|-------------0-|--2--3--2--0-|
A-|---------3--|----0-2-3---3---|----0-2-3--3---|-------------|
E-|--3----3----|--3-------------|--3------------|-------------|

Gonna make what....
G-|----------------|---------------|----------------|--------2-3---|
D-|--------------3-|-------------3-|--------------0-|--2--3--------|
A-|----0-2-3---3---|----0-2-3--3---|----2-0-3--3----|--------------|
E-|--3-------------|--3------------|--3-------------|--------------|

C G C Dm C G
REF. These words....
G-|----------------|-------------0-|---------------|-------------|----0-----0-|
D-|--------------3-|----3-3--2-3---|-------------3-|-----0-----0-|-2-3----0---|
A-|---0-2-3--------|-3-------------|---0-2-3-------|--3-----0----|------------|
E-|-3---------3----|---------------|-3---------3---|-------------|------------|

I tripped...
G-|---------------|----------------|-------------|-------------------|
D-|---------------|----------------|-------------|----0-2-3---2-0-0--|
A-|----0-2-0------|--------0-------|-----------0-|--3----------------|
E-|--3--------0-3-|--3-0-3-----0-3-|--3-0-3------|-------------------|


...is my appeal....
G-|-------------|---------------|--------------|-----------------|------------|
D-|-2-0-2-0-----|-------------3-|------------3-|--------------0--|--2---3-2-0-|
A-|-------------|----0-2-3--3---|---0-2-3--3---|---0-2-3---3-----|------------|
E-|----------3--|--3------------|-3------------|-3---------------|------------|

I need a chance....
G-|----------------|---------------|----------------|--------2-3-4-|
D-|--------------3-|-------------3-|--------------0-|--2--3--------|
A-|----0-2-3---3---|----0-2-3--3---|----2-0-3--3----|--------------|
E-|--3-------------|--3------------|--3-------------|--------------|


C G C Dm C G
REF. These words....
G-|----------------|-------------0-|---------------|-------------|----0-----0-|
D-|--------------3-|----3-3--2-3---|-------------3-|-----0-----0-|-2-3----0---|
A-|---0-2-3--------|-3-------------|---0-2-3-------|--3-----0----|------------|
E-|-3---------3----|---------------|-3---------3---|-------------|------------|


C G C Dm C G
REF. These words....
G-|----------------|-------------0-|---------------|-------------|----0-----0-|
D-|--------------3-|----3-3--2-3---|-------------3-|-----0-----0-|-2-3----0---|
A-|---0-2-3--------|-3-------------|---0-2-3-------|--3-----0----|------------|
E-|-3---------3----|---------------|-3---------3---|-------------|------------|


C G C Dm C G
REF. These words....
G-|----------------|-------------0-|---------------|-------------|----0-----0-|
D-|--------------3-|----3-3--2-3---|-------------3-|-----0-----0-|-2-3----0---|
A-|---0-2-3--------|-3-------------|---0-2-3-------|--3-----0----|------------|
E-|-3---------3----|---------------|-3---------3---|-------------|------------|

Copyrights
Author: ?
Composer: ?
Publisher: ?
More details
Language: English

Reactions

CommonCrawl [Bot]

Follow Muzikum