R.E.M.
Gardening At Night Ver 2 (Bass tab)

...rem's gardening at night from eponymous...
unknown@bellatlantic.net
REM's gardening at night off Eponymous
bass tabbed by unknown@bellatlantic.net
corrections would be appreciated
note- each '-' represents a half beat
-for a tab that is like this:
d|5-5 -44-4 -2| represents a dotted eighth
a|--- - --- - | sixteenth rythmn


intro (after the soft guitar picking intro;; this follows the
same rythmn as the "chorded" guitar if i tabbed it
wrong)

g| --- - --- - |--------|--------|-------- |
d|* 5-5 -44-4 -2|2-20-0--|--------|-----02- *|
a|* --- - --- - |--------|3-3-32-3|-3-3---- *| three times, then
e| --- - --- - |--------|--------|-------- |

g|--- - --- - |--------|--------|rrrrrrrr|
d|5-5 -44-4 -2|2-20-0--|--------|eeeeeeee|
a|--- - --- - |--------|3-------|ssssssss|
e|--- - --- - |--------|--------|tttttttt|

verse
g| -r------|-r------|-r----r-|-r----r-|--------|--------|
d|* 0e-0--0-|0e-0--0-|-e----e-|-e----e-|---0--2-|---0--2-|
a|* -s------|-s------|3s--33s3|3s--33s3|--------|--------|
e| -t------|-t------|-t----t-|-t----t-|3-------|3-------|

_____________________________
1. |2.
g|--------|-------- |2-222222|22222220|--------|
d|--------|-------- *|--------|--------|0-------|
a|0-000000|0000000- *|--------|--------|--------|
e|--------|-------- |--------|--------|--------|


chorus

_________________
1,2 | 3. (play this part three times)
g| 0--------|-------- | --------|--------|--------|-------- |
d|* ---------|0-00--0- *|* ---4--2-|---4--2-|--------|-------- *|
a|* ----0----|-------- *|* 2-------|2-------|---0--4-|-------- *|
e| ---------|-------- | --------|--------|2-------|-------- |

g|--------|------0-|2-222222|22222220|
d|---4--2-|---4----|--------|--------|
a|2-------|2-------|--------|--------|
e|--------|--------|--------|--------|

end
_________________
1,2 | 3.
g| 0--------|-------- | --------|7-------|
d|* ---------|0-00--0- *| 0-------|--------|
a|* ----0----|-------- *| --------|--------|
e| ---------|-------- | --------|--------|

g| --- - --- - |--------|--------|-------- |
d|* 5-5 -44-4 -2|2-20-0--|--------|-----02- *|
a|* --- - --- - |--------|3-3-32-3|-3-3---- *| three times (i think)
e| --- - --- - |--------|--------|-------- | then,

g|--- - --- - |--------|--------|--------|--------|
d|5-5 -44-4 -2|2-20-0--|--------|--------|--------|
a|--- - --- - |--------|3-3-32-3|3-3-320-|--------|
e|--- - --- - |--------|--------|--------|3-------|

it goes something like this:
intro, verse, chorus, verse, chorus, verse, end

Copyrights
Author: ?
Composer: ?
Publisher: ?
More details
Language: English

Reactions

CommonCrawl [Bot]

Follow Muzikum