R.E.M.
She Just Wants To Be Ver 3 (Guitar tab)

This is what I found out for a great song, you�ll notice that riff 2 which you play through the whole song is only 2 chords!!
Try this song and listen to it to get the hang of it, it�s really a great song!!!

ENJOY!!!!

R.E.M � She Just Wants To Be
Written by: Marco Tolenaars
mtolenaars@home.nl

Riff 1:
E�3-0----3-0-----x- 2X
B-1---1--1---1-3-0-
G----------------0-
D----------------2-
A----------------2-
E----------------0-

Riff 2:
Am CM7 Am CM7 Am CM7 C Em
E-----0---------p-------0--------p---------0----------p-----------------�
B-----1-----1--1-0------1----1--1-0--------1------1--1-0---1---3-----1-0�
G-----2�-h�----0-0------2�-h�---0-0--------2�-h�-----0-0----------0--0-0�
D---2---0-3---3-------2---0-3--3---------2---0-3---3-----2---2�--0------�
A-0-----------------0-----------------0-----------------3-------2-------�
E-----------------------------------------------------------------------�

Riff 3:
E---------------�
B---------------�
G---------------�
D-----0---------�
A-2-3---2-0---0-�
E-----------3---�

Intro riff 1


Riff 2 Riff 2
It's not that she walked away,
Riff 2
her world got smaller.
Riff 2
All the usual places,
Riff 2
the same destinations,
Riff 2
only something's changed.

Same as verse 1
It's not that she wasn't rewarded
with pomegranate afternoons
of mingus, chet baker and chess.
It's not stampeding fortune,
or prim affectations.
She's off on her own
but she knows

Now is greater than the whole of the past
is greater, and now she knows

F Dsus2
F Dsus2

Am C Em Am
She just wants to be somewhere
C G
She just wants to be 2X Riff 3



Riff 2
It's not that the transparency
of her earlier incarnations
now looked back on, weren't rich
and loaded with beautiful vulnerability
and now she knows


F Dsus2

F
Now is greater
Dsus2
and she knows that

Am C Em Am
She just wants to be somewhere
C G
She just wants to be 2X Riff 3

Solo:

E--5---5---5-7-8-7 5--5-5---5-7-8-10-12-15\5------�
B----8---5-----------8---8------------------------�
G-------------------------------------------------�
D-------------------------------------------------�
A-------------------------------------------------�
E-------------------------------------------------�



E--5---5---5-7-8-7 5---5-5--5-7-8-7 7-5-7 5-5-3-5-�
B----8---5-----------8----8-----------------------�
G-------------------------------------------------�
D-------------------------------------------------�
A-------------------------------------------------�
E-------------------------------------------------�


F Dsus2
Now is greater,
F Dsus2
now is greater. And she knows that





Am C Em Am
She just wants to be somewhere
C G
She just wants to be 4X Riff 3


Riff 2:
It's not like if angels
could truly look down
stir up the trappings
and light on the ground.
Remind us of what, when, why or who
that how's up to us, me and you.
And now is greater than the whole of the past


Is greater, and now she knows that.
Now she knows.

Riff 2 6X


Riff 1:
E�3-0----3-0-----x- 2x
B-1---1--1---1-3-0-
G----------------0-
D----------------2-
A----------------2-
E----------------0-

Ending:
E�--------------------�
B�--------1-0�--------�
G�------2-----2---2---�
D�----2---------2-----�
A�--0---------------0-�
E�3-------------------�

Copyrights
Author: ?
Composer: ?
Publisher: ?
More details
Language: English

Reactions

CommonCrawl [Bot]

Follow Muzikum