R.E.M.
The One I Love (Bass tab)

Arist: REM
Song: The One I Love
Album: Document

From: Ralf Siemon (siemon@Mathematik.Uni-Marburg.DE)
corrections by:Dave Silverstone (dsgumby@dreamscape.com)

intro:

G|--------|--------|--------|--------|
D|----57--|----54--|----57--|--------|
A|7--7---5|---5---7|---7---7|------5-| 2x
E|--------|--------|--------|---7----|

verse:

G|--------|--------|--------|--------|
D|--------|--------|--------|--------|
A|7-------|5-------|7-------|7-------|
E|----77--|----55--|----77--|--------|

G|--------|--------|--------|--------|
D|--------|--------|--------|--------|
A|7-------|5-------|7-------|7--7--5-|
E|---77---|----55--|----77--|--------|

G|--------|--------|--------|--------|
D|5-5-----|--------|5-5-----|-----5--|
A|----87-5|--5-57-5|--------|--57----|
E|--------|--------|---5-7-8|--------|

G|--------|--------|--------|--------|
D|--------|--------|--------|---5-4--|
A|7-------|5-------|7-------|7-----75|
E|----77--|----55--|----77--|--------|

chorus: same as intro.

Verse

chorus: G|--------|
D|--------|
like before, but ends on A|---7--5-|
E|--------|

solo:

G|--------|--------|--------|--------|
D|5-5-----|--------|5-5-----|-----5--|
A|----87-5|--5-57-5|--------|-5-7----|
E|--------|--------|---5-7-8|--------|

G|--------|--------|--------|--------|
D|--------|--------|--------|--------|
A|7---76-5|------5-|7-----5-|7-------|
E|---7----|---5----|---77---|--------|

verse

chorus 2x

ending:

G|------|------|---||
D|---567|------|---||
A|7-----|5--6--|---||
E|------|------|0--||


each '-' represents one beat.

Backing Vocals: What catchy R.E.M. song would be complete without Mike
Mill's
high pitched background singing? In this case, over the refrain riff and
"Fire!", The lyrics in the background are: "She's comin' down on her own
now. (Fire!) She's comin' down on her own." Be a good bass player and take
responsibility for doing the backup on this.

Copyrights
Author: ?
Composer: ?
Publisher: ?
More details
Language: English
Available on: At the Bbc - CD 6 (2018), Best of R.E.M. At the Bbc - CD 2 (2018)

Reactions

CommonCrawl [Bot]

Follow Muzikum