R.E.M.
Star Me Kitten (Bass tab)

STAR ME KITTEN

From: Jack/Nancy Wagner

Repeat this 3 times

E-||-------------------------|----------------------------------------------------------||
B-||.------------------------|--------------8/10-8-----8/10-8----------8/10-8----------.||
G-||.--4/5-7-9-----7/9-4-----|-7/9-7-4-0--7--------5/7--------9-7-5-7---------4/5-8-7-0.||
D-||---------------------5-5-|----------------------------------------------------------||


E-||----5-3--------5-3-----|| E----------------------------------------------------
B-||.-------5-3--5-----5--.|| B------------------------------------------8/10-8----
G-||.-5-----------------5-.|| (x3) G-8-7-5-4h5/7-9--7/9-7-4-0-0-|-7/9-7-4-0-7--------5/7
D-||-----------------------|| D----------------------------------------------------

E--------------------------------||-----------------------------------------||
B-8/10-8---------8/10-8----------||.-8/10-8----8/10-8---------8/10-8-------.||
G--------9-7-5-7--------4/5-8-7--||.--------5/7-------9-7-5-7--------4/5-7-.|| (4x)
D------------------------------5-||-7-------------------------------------5-||

Copyrights
Author: ?
Composer: ?
Publisher: ?
More details
Language: English

Reactions

CommonCrawl [Bot]

Follow Muzikum