R.E.M.
White Tornado (Guitar chord)

#
#

# For the latest collection of R.E.M. chords & tab, go to
# http://www.uark.edu/~cbray/rem/
#
# If you have any corrections or additions to this file, please email them
# to cbray@comp.uark.edu
#

WHITE TORNADO


_____________________
|1st, 3rd, 4th times
e(1) ----------------|----------------|----------------|----------------- ||
B(2) 3-----1-------1-|3-----1-------1-|5-----3---------|5-----3----------:||
G(3) ------------2---|------------2---|----------------|------------4---- ||
________________ repeat sign^^^
|2nd time
e(1) 3-3-2-2-0-0-----|
B(2) ------------3-3-| and on to...
G(3) ----------------|

e(1) || /5---8-5-8-5-8-10b|(11)---(11)---8--------|
B(2) ||:------------------|----------------10-8---|
G(3) || ------------------|---------------------9-|10b-(11)-10-8-----8---|
D(4) |----------------7---7-|

B(2) ---------------------- ||
G(3) 10b-(11)-10-8-----8---:||
D(4) ----------------7---7- ||

Copyrights
Author: ?
Composer: ?
Publisher: ?
More details
Language: English
Available on: Dead Letter Office (1987)

Reactions

CommonCrawl [Bot]

Follow Muzikum