R.E.M.
Let Me In (Guitar chord)

#
#

# For the latest collection of R.E.M. chords & tab, go to
# http://www.uark.edu/~cbray/rem/
#
# If you have any corrections or additions to this file, please email them
# to cbray@comp.uark.edu
#

LET ME IN

Chords by: Jan Chalupa (honza@abrcp.abrcp.cz)
Corrections by: Bryan Killingsworth (akilling@pen.k12.va.us)


Em Bm/F#
Yeah, ..
Em Dsus4 D
promises ..
Em Bm/F#
We ...
Em C
We .


D G C Am D G C
Heyyyyyy...
D G C Am D G Em
Heyyyyyy...


Em Bm/F#
I ..,
Em Dsus4 D
mister ...
Em Bm/F#
He ..
Em C
to ...


D G C Am D G C
Heyyyyyy, ..
D G C Am D G Em
Heyyyyyy...


{Break:} D

{Then...Organ arranged for guitar (see end of song for tab):}


Em Bm/F# Em Dsus4 D
I ...
Em Bm/F#
I've ...
Em
All ...
C
Clumsy, ....


D G C Am D G C
Heyyyyyy..
D G C Am D G Em
Heyyyyyy, ...
D G C Am D G C
Heyyyyyy..
D G C Am D G Em
Heyyyyyy, ...


{Organ for guitar:}

e-------------------------------
B-------------------8-----------
G--7--9------7-----------9-----7
D-------------------------------

over the last chorus and to the end:
e--------------------------------------------------------------
B------------13--12----------------------------13--12----------
G--12--14------------14--12----------12--14------------14--12--
D-------------------------------14-----------------------------
repeats over chorus chords to end......

Copyrights
Author: ?
Composer: ?
Publisher: ?
More details
Language: English

Reactions

CommonCrawl [Bot]

Follow Muzikum