R.E.M.
Good Advices (Guitar chord)

#
#

# For the latest collection of R.E.M. chords & tab, go to
# http://www.uark.edu/~cbray/rem/
#
# If you have any corrections or additions to this file, please email them
# to cbray@comp.uark.edu
#

GOOD ADVICES


The basic chords for this song are E, D and A, although not the normal
open E, D and A. There's also an Em and some picking as well.

Here are the chords as I hear them, but due to the numerous guitar
tracks on the studio version, your guess is as good as mine:

E D A Em D-lick
E-0------0-----0----0-----2-----0--------------------------------------
B-0------0-----0----0-----3-3-----3---3--------------------------------
G-9------7-----6----0-----2---2-----2----------------------------------
D-9------7-----7----2-----0--------------------------------------------
A-7------5-----0----2--------------------------------------------------
E-0------X-----X----0--------------------------------------------------

The song fades in on the E chord and the verses go:
E
When .., |
D
Look ...
A E
Keep .., |
D-lick |
Put ... |

Verse II:

CHORUS:
Who are ..
E-0-0---0--------0-0--------------0---------0-------5-----5------------
B-0---0-0--------0---0--------------5---------5-------5-----5---5------
G-2-----2-slide>-4-----4-slide>-6-----6-h-7-----6-6-----6-----6--------
D-2-----2-slide>-4--------------------------------7-----7-----7--------
A-0-----0--------0-----------------------------------------------------
E----------------------------------------------------------------------

call for?
E---0-----0----------0-----0------- Chords:
B-----0-----0---0------0-----0---0- E A E
G---------------------------------- What do you have to say?
D-7-----7-----7----7-----7-----7---
A-0-----0-----0----0-----0-----0---
E----------------------------------

Keep ...
E-0-0---0--------0-0--------------0---------0-------5-----5------------
B-0---0-0--------0---0--------------5---------5-------5-----5---5------
G-2-----2-slide>-4-----4-slide>-6-----6-h-7-----6-6-----6-----6--------
D-2-----2-slide>-4--------------------------------7-----7-----7--------
A-0-----0--------0-----------------------------------------------------
E----------------------------------------------------------------------

E
Home is ..
E---0-----0----------0-----0---------0-----0---------------------------
B-----0-----0---0------0-----0---0-----0-----0-------------------------
G----------------------------------------------------------------------
D-7-----7-----7----7-----7-----7---7-----7-----------------------------
A-0-----0-----0----0-----0-----0---0-----0-----------------------------
E----------------------------------------------------------------------

Verse 3
Verse 4

CHORUS (as above):

Break:
Em
At the ..
When ...

verse 5
verse 6

CHORUS (as above) END

Copyrights
Author: ?
Composer: ?
Publisher: ?
More details
Language: English

Reactions

CommonCrawl [Bot]

Follow Muzikum