R.E.M.
The One I Love (Guitar tab)

#
From: mfirth@cee.hw.ac.uk (Michael J C Firth)

REM - THE ONE I LOVE TAB
>From the album 'DOCUMENT'

INTRO PART

s
E------------------0-----0-------0---0--------0-------0-------------|
B--------------------3/5----(0)----3---0---------0--3---------------|
G ---------------------------4-----------4--------------------------|
D ---------------0--------------------------------------------------|
A -------------0----------------------------------------------------|
E ---0--0--2^3------------------------------------------------------|
bu

Play the intro figure twice.

VERSE SECTION

E------0-----0----0--|------0-----0-----0--|-----0-----0-----0-------0-----0---------
B--------3-----3-----|--------3-----3------|-------------3---------------------------
G----4-----4-----4---|----4-----4-----4----|---4----4------4----4--4----4-----4------
D--------------------|---------------------|-----------------------------------------
A--------------------|---------------------|-----------------------------------------
E--------------------|---------------------|-----------------------------------------
This one goes out to the one I love


E------0-----0----0--|------0-----0-----0--|-----0-----0-----0-------0-----0---------
B--------3-----3-----|--------3-----3------|-------------3---------------------------
G----4-----4-----4---|----4-----4-----4----|---4----4------4----4--4----4------------
D--------------------|---------------------|-----------------------------------------
A--------------------|---------------------|-------------------------------------0h2-
E--------------------|---------------------|-----------------------------------------
This one goes out to the one I've left behind

OVERDRIVEN GUITAR

E-----3--3--3--3--0--|--2--3--3--3--0---|-1--3--3--1----3--3--3--3--3--3----3--|--------|
B-----3--3--3--3--0--|--3--3--3--3--0---|-1--1--1--1----1--1--1--1--1--1----1--|--------|
G-----0--------------|--2---------------|-2------------------------------------|--0-----|
D-----0--------------|--0---------------|-3------------------------------------|--2-----|
A-----2--------------|------------------|-0------------------------------------|--2-----|
E-----3--------------|------------------|--------------------------------------|--0-----|
A simple prop to occupy my time *********

'CLEAN' GUITAR

E------0-----0----0--|------0-----0-----0--|-----0-----0-----0-------0-----0---------
B--------3-----3-----|--------3-----3------|-------------3---------------------------
G----4-----4-----4---|----4-----4-----4----|---4----4------4----4--4----4-----4------
D--------------------|---------------------|-----------------------------------------
A--------------------|---------------------|-----------------------------------------
E--------------------|---------------------|-----------------------------------------
This one goes out to the one I love
*********************

*** These 2 sections are played at the same time. When the Em chord is struck by the overdriven
guitar the picking pattern played by the clean guitar is then faded in, and can be heard
clearly after the ***** part in the picking section has been played. When playing this with
one guitar just let the Em chord ring over the **** section of the picking and then carry on.

FIRE! - Play the Intro Figure

FIRE! - Play the Intro Figure


GUITAR SOLO
s s s s
E--------------------|--------------------|--------------------|--0-----------------------|
B--------3----5--3---|--------3----5--3---|--------3----5--3---|--3/5--3------------------|
G----3/4----4--------|----3/4----4--------|----3/4----4--------|----------4----2--0-------|
D--------------------|--------------------|--------------------|---------------------2--0-|
A--------------------|--------------------|--------------------|--------------------------|
E--------------------|--------------------|--------------------|--------------------------|


s
E-----------------------------------------0-----------------------------------------------|
B-----------------3-----------------------------------------------------------------------|
G------0--0--2/4-----4--2p0-----------0---------------------------------------------------|
D---2-------------------------2p0--2------------------------------------------------------|
A-----------------------------------------------------------------------------------------|
E----------------------------------------------2^3---0------------------------------------|
bu

ENDING SECTION


E------------------------------------------------|
B------------------------------------------------|
G----------------------2---0-----0---------------|
D-----------------0----0---1-----2---------------|
A-----2--------0-----------------2---------------|
E-----0----2^3-------------------0---------------|


Em D Em7
This one goes out to the one I love
Em D Em7
This one goes out to the one I've left behind
G / Gsus4 D C
A simple prop to occupy my time
Em D Em7
This one goes out to the one I love
Fire
Fire

This one goes out to the one I love
This one goes out to the one I've left behind
Another prop has occupied my time
This one goes out to the one I love

The above tab is for the lead guitar parts of the song. Behind all this
is an acoustic guitar which plays the chords indicated above the lyrics,
and variations upon these (eg for D, Dsus4 and Dsus2). The rhythm style is
loose and just fills out the song.

This song is fairly straightforward although detecting the picking on the
record can be quite difficult, switching the speaker 'balance' switch hard
left and right on your hi-fi should help isolate things.

The vertical lines in the tab aren't intended to be bar lines, they just
divide things up into sections which make it easier to learn.

Feel free to mail me with any comments or corrections.

Cheers
Wayne Ellis (e-mail ellis_w_wayne@bt-web.co.uk


From: csb1@engr.engr.uark.edu (Chris Bray)

THE ONE I LOVE (by REM)


Intro riff:

E-|----------------------0--0--0--0--0---------------------0--0--0--0--0--0--
B-|---------------3--s---5--3--5--5--3------------------3--s--5--3--5--5--3--
G-|---------------2-------------------------------------2--------------------
D-|---------------0-------------------------------------0--------------------
A-|------------0-------------------------------------0-----------------------
E-|-0--0--2s3-----------------------------0--0--2s3--------------------------


Em Dsus2 Em Em7
This one goes out to the one I love
Em Dsus2 Em Em7
This one goes out to the one I've left behind
Gsus4 D Am7 C
A simple prop to occupy my time
Em D Em Em7
This one goes out to the one I love

{riff}
Fire (she's comin' down on her own, now)


Guitar solo:
E-|--------------------------------------------------------------------------
B-|------3-----5--3--------3-----5--3--------3-----5--3--3h5--3--0-----------
G-|-2s4-----4---------2s4-----4---------2s4-----4-------------------2--0-----
D-|--------------------------------------------------------------------------
A-|--------------------------------------------------------------------------
E-|--------------------------------------------------------------------------


E-|--------------------------------------------------------------------------
B-|-----------------------3--------------------------------------------------
G-|---------0--0--2--2s4-----4--2--0-----------------------------------------
D-|-0--0h2----------------------------0--0h2--4--2-------2-------------------
A-|--------------------------------------------------------------------------
E-|-------------------------------------------------3~~-----------0----------


Em Dsus2 Em Em7
This one goes out to the one I love
Em Dsus2 Em Em7
This one goes out to the one I've left behind
Gsus4 D Am7 C
Another prop has occupied my time
Em D Em Em7
This one goes out to the one I love

End:
E-|------------------------0--
B-|------------3-----0-----0--
G-|------------2-----0-----0--
D-|------------0-----1-----2--
A-|---------0--------------2--
E-|-0--2s3-----------------0--


--
==============================================================================
csb1@engr.uark.edu | Chris Bray
cbray@comp.uark.edu | University of Arkansas, Fayetteville
cbray@nyx.cs.du.edu | WWW: http://www.engr.uark.edu/~csb1
==============================================================================
Looking for REM Chords? Check out the REM chord archive at:
http://www.engr.uark.edu/~csb1/rem/rem.html
==============================================================================

Copyrights
Author: ?
Composer: ?
Publisher: ?
More details
Language: English

Reactions

CommonCrawl [Bot]

Follow Muzikum