R.E.M.
Talk About The Passion (Guitar tab)

#
From uunet!peora!tarpit!cs.ucf.edu!schnitzi Mon Aug 31 21:45:25 PDT 1992
Article: 1940 of alt.guitar.tab
Newsgroups: alt.guitar.tab
Path: nevada.edu!uunet!peora!tarpit!cs.ucf.edu!schnitzi
From: schnitzi@cs.ucf.edu (Mark Schnitzius)
Subject: R.E.M. "Talk About the Passion"
Message-ID:
Sender: news@cs.ucf.edu (News system)
Organization: University of Central Florida
Distribution: alt
Date: Sun, 30 Aug 1992 23:40:20 GMT
Lines: 21

R.E.M. Talk About the Passion

Just intro and verses. Does anyone know any more than this?

-------------------------------------------------------------
-3--3-----------3--3--------------------3--------------------
-2--2-----------2--2-----------------0-----0-----------------
-0--0--0--2--4--0--0--0--2--4-----2-----------2--------------
-0--0-----------0--0-----------3-----------------3-----------
-------------------------------------------------------------

----------------------
----------3--2--0-----
-------0-----------2--
----2-----------------
-0--------------------
----------------------

Mark Schnitzius
schnitzi@eola.cs.ucf.edu
Univ. of Central Florida

Copyrights
Author: ?
Composer: ?
Publisher: ?
More details
Language: English

Reactions

CommonCrawl [Bot]

Follow Muzikum