R.E.M.
Hyena (Guitar chord)

#
hyena - r.e.m.
(tab: r. muncada, lyr: Ron Henry, rgh3@cornell.edu / rec.music.rem)

P. Buck's verse riffs (not timed properly, you should know, clean, muted)
-------------------------------------------
---------0-0-0-2-3-3-3-3-3-2\0/2-2-2-2-2-2-
-2-2-2-3-----------------------------------
-------------------------------------------
-------------------------------------------
-------------------------------------------

E A2 A
Night time fell at the opening,
In the final act of the beginning of time.
Hyena take your role, the stage is set.
The town is safe again tonight

E|-----0-3--3--2--2--0--0-----0-3--3--2--2--0--0-
B|-2-3--------------------2-3--------------------
G|-----------------------------------------------
D|-----------------------------------------------
A|-----------------------------------------------
E|-----------------------------------------------

G D A
Hyena (I see the day ahead)
Hyena (and all that I've cried through)
Hyena (God knows you're doin' that, don't you?)

[The open chord sequence with the moving bass line is hard to
figure, first I thought it was F#m, but I think it's
D(strummed repeatedly) Am D Am E
{lyr: don't you?}
if anyone has a better transposition of this, please mail it to
me]

E A2 A
Hyena, sister look to your hand
Man you serve communal interest,
She'll tell you when and where and how and why you'd hurt
A beautiful young lady

Hyena (I see the day ahead)
Hyena (and all that I've cried through)
Hyena (God knows you're doin' that, don't you?)

The only thing to fear is fearlessness
The bigger the weapon the greater the fear
Hyena is ambassador to here

Night time fell like the closing
Meager pay, but recognition
Hyena crawls on his belly out
The town is safe again tonight

Hyena (I see the changes, man)
Hyena (Goin' on 'cross the way)
Hyena (I see my road ahead)
Hyena (Don't know if I should stay)
Hyena (I see you holding him,)
Hyena (and all that I've cried through)
Hyena (God knows you're doin' that, don't you?)


Please send corrections and/or additions to rem@tsoft.net if you have them.

Copyrights
Author: ?
Composer: ?
Publisher: ?
More details
Language: English

Reactions

CommonCrawl [Bot]

Follow Muzikum