Disturbed

Disturbed
Stupify Ver 2 (Bass tab)

A 5-string bass is recommended for this song, but not necessary.

Tuning is as follows:

Tune all strings down a minor third (three steps)

1 = E
2 = B
3 = F #
4 = C #

(The fifth string would be G#)

Chorus/Intro

1 ----------------------------------
2 ----------------------------------
3 -3------------------5h7-----------
4 ----0-0-0-0----0-0-------0-0------

Verse

1 ----------------------------------
2 ---------------------------------- (the periods mean play the notes short with a heavy attack)
3 ----------------------------------
4 -0---0---0---0--------------------
. . . .
Fill 1, before second verse

1 ----------------------------------
2 ----------------------------------
3 ----------------------------------
4 -0---0---0---0-----------7\-------
. . . .
Far Eastern part

1 ---------------------------------- (3x) then 1 ---------------------7---------
2 -----9--8---9--------------------- 2 -----9----8----9---------9-----
3 -7-------------------------------- 3 -7-----------------------------
4 ---------------------------------- 4 -------------------------------

Interlude

1 ------------------ (2x) then 1 --------------------------------------
2 ------------------ 2 --------------------------------------
3 ------------------ 3 --------------------------------------
4 0----------------- 4 -0----3-----0------3-------0--1-------
(let ring)
Heavy Chorus without lyrics

1 ------------------------------------------------
2 ------------------------------------------------
3 -3----------------------------------------------
4 ----0-0-0-0----0-0-0-0--1----0-0-0-0------------

Last fill before Heavy Outro

1 ----------------------------
2 ----------------------------
3 ----------------------------
4 -1-0-0---0-1-0-0-0----------

Heavy Outro

1 ------------------------------------------------------------------ (4x) then 1 ----------------------------------
2 ------------------------------------------------------------------ 2 ----------------------------------
3 ------------------------------------------------------------------ 3 ----------------------------------
4 -0-0---0-0---0-0---0-0---0-0-0-0---1-----0-0-0------0-0----------- 4 -0-0---0-0---0-0---0-0------------
. . . . . . . . . .

OptimusPrime

Submitted by OptimusPrime at Thu 14 Aug, 2003 4:39 pm

Author: ?
Composer: ?
Publisher: ?
Language: English

Reactions

CommonCrawl [Bot]

Follow Muzikum