Die Ärzte
B (Guitar tab)

B.S.L.(Brutaler schneller L�rm)
===============================
(M/T: Urlaub)


Anm.:Das Lied wird wird sehr verzerrt gespielt, die Gitarre ist auf Dropped D gestimmt

Akkorde:
C E D C4 A H
1:---|---|---|---|---|---|
2:---|---|---|-6-|---|---|
3:-5-|-9-|-7-|-5-|---|-4-|
4:-5-|-9-|-7-|-5-|-7-|-4-|
5:-3-|-7-|-5-|-3-|-7-|-2-|
6:---|---|---|---|-7-|---|


-Die folgenden Klangbeispiele sind Erg�nzungen zum methodischen Aufbau der Textbeilage und d�rfen
nicht losgel�st von dieser behandelt werden!

Intro (Fig.1):
C

1:---------------------------
2:---------------------------
3:---------------------------
4:---------------------------
5:------7--5-----------------
6:--/9--------9--8--7--5--0--

Fig.1:

2x
E E D E E D E E D C4
1:-------------------------------------------------------------
2:------------------------------------------------6-6-6-6-6-6--
3:--9--x--xx--99-7-9--x--xx--99-7-9--x--xx--99-7--5-5-5-5-5-5--
4:--9--x--xx--99-7-9--x--xx--99-7-9--x--xx--99-7--5-5-5-5-5-5--
5:--7--x--xx--77-5-7--x--xx--77-5-7--x--xx--77-5--3-3-3-3-3-3--
6:-------------------------------------------------------------


1.Strophe(2x Fig.1)

Musik hab ich schon als Kind gern geh�rt,
die Br�llm�bel an, dass es nur noch so r�hrt,
jetzt kann ich kaum noch h�rn, meine Ohren sind zerst�rt.

Die Nachbarn holten immer sofort die Polizei,
ein bisschen zuviel L�rm, was ist denn schon dabei?
wenn es nicht laut ist, ist es auch nicht HIFI.


Refrain(mit Fig.2 ab dem 2x E-A)
E A E A
B.S.L. - ich h�r so gerne B.S.L.
E A
Tag und Nacht nur B.S.L.
E A
Darfs auch was andres sein? NEIN!
H C H C
Leise ist schei�e!


Fig.2:
3x
E A(nur Bass)
1:--------------------------
2:--------------------------
3:--9---11--12-11--9--7--9--
4:--------------------------
5:--7----9--10--9--7--5--7--
6:--------------------------

1x
H C H C(Nur Bass)
1:----------------
2:----------------
3:--7--9----7--9--
4:----------------
5:--5--7----5--7--
6:----------------


2.Strophe(2x Fig.1):

Die Nachbarn sind leider v�llig daneben,
nach dem dritten H�rsturz haben sie aufgegeben,
zum Abschied gab es noch ein Erdbeben.

Wie es weitergeht? Ich hab keinen Schimmer,
wenn ich genervt bin, dreh ich auf in meinem Zimmer,
genervt bin ich eigentlich sowieso immer.


Refrain(mit Fig.2 ab zweitem E-A, das H C wird nur einmal gespielt):
E A E A
B.S.L. - ich h�r so gerne B.S.L.
E A
Tag und Nacht nur B.S.L.
E A
Darfs auch was andres sein? NEIN!
H C (scratch alle B�nde von oben nach unten)
Leise ist schei�e!


Interlude:
C C A A C C A A

C C A
Mach noch etwas lauter (etwas lauter),
C C A
ein kleines bisschen lauter (bisschen lauter)


Outro-Refrain
(Folgendes Fill kommt vor die Fig.2 anstatt des normalen E-A, ansonsten weiter Fig.2 das
erste Mal nur ohne Ende und der E-Akkord, das zweite Mal vollst�ndig Fig.2 und einmal den
Akkord E am Ende):

1---12-----------
2:--15b17.......-
3----------------
4----------------
5----------------
6----------------

E A E A
B.S.L. - ich h�r so gerne B.S.L.
E A
Tag und Nacht nur B.S.L.
E A
Darfs auch was andres sein? NEIN!
E E E E EEEEEEE
B.S.L. (Aaaahhhhh....)
E A E A
B.S.L. - ich h�r so gerne B.S.L.
E A
Tag und Nacht nur B.S.L.
E A
Darfs auch was andres sein? NEIN!
H C H C
Leise ist schei�e!
E
B.S.L

Copyrights
Author: ?
Composer: ?
Publisher: ?
More details
Language: German

Reactions

CommonCrawl [Bot]

Follow Muzikum