Depeche Mode

Depeche Mode
Personal Jesus (Guitar tab)

#
Date: Tue, 12 Dec 95 15:51:22 0000
From: bmcphail
Subject: TAB: Personal Jesus - Depeche Mode

Personal Jesus - Depeche Mode
----------------

Comments/corrections to

Riff 1
------
e|-9----s14-----------------------
B|--------------------------------
G|--------------------------------
D|--------------------------------
A|--------------------------------
E|--------------------------------

Riff 2
------
e|----------------|
b|----------------|
G|----------------|
D|-------4--------|
A|----------------|
E|-2-5p2----5p2---|
| F#5 |

Riff 3
------
e|------------------|
b|------------------|
G|-------4----------|
D|------------7--6--|
A|-2-5p2----5-7--6--|
E|------------5--4--|
| B5 A5 G#5


Chords/How to play it:
----------------------

[Start] : Riff 1

F#m [Riff 2 plays over F#m]
Reach out and touch faith

[Riff 2 over next few lines] [Riff 3]
Your own personal Jesus, someone to hear your prayers, someone who cares

[Riff 2, etc] [Riff 3]
Your own personal Jesus, someone to hear your prayers, someone who's there

[Riff 2 for four bars]

F#m [No riff] A E
Feeling unknown, and you're all alone, flesh and bone, by the telephone

Bm C#sus4 Dmaj7 F#m [with riff 2]
Lift up the receiver, I'll make you a believer

F#m [No Riff] A
Take second best, put me to the test, things on your chest

E Bm C#msus4 Dmaj7
You need to confess, I will deliver, you know I'm a forgiver

F#m [With riff 1] G# G
Reach out and touch faith

F#m [etc] G# G
Reach out and touch faith

[Riff 2] [Riff 3]
Your own personal Jesus, someone to hear your prayers, someone who cares

[Riff 2]
Your own personal Jesus, someone to hear your prayers,

B5 A#5 A5 G#5
Someone who's there

[Following verse/chorus as above]

Feeling unknown, and you're all alone, flesh and bone
By the telephone, lift up the receiver, I'll make you a believer
I will deliver, You know I'm a forgiver

Reach out and touch faith
Your own personal Jesus
Reach out and touch faith

[Repeat to end]

OptimusPrime

Submitted by OptimusPrime at Thu 13 Dec, 2001 12:25 am

Author: Martin L. Gore
Composer: Martin L. Gore
Publisher: Labels
Published in: 2006
Language: English
Available on: Best of - CD 1 (2017), Live Spirits Soundtrack (2020), The Best Of, Volume 1 (2006), Violator (1990)

Reactions

1 post

CommonCrawl [Bot]
AstDerek
Thu 24 Feb, 2005 3:54 pm
At the very beginning, play harmonics:

Riff 1
------
e|--------------------------------
B|--------------------------------
G|--------------------------------
D|---------|4---------------------
A|---|4---------------------------
E|--------------------------------

instead of plain frets. Harmonics at 4th fret will give a very nice touch.
1 post • Page 1 of 1

Follow Muzikum