The Eagles

The Eagles
Hotel California Intro Ver 2 (Guitar tab)

e --------0------3------------0------0-----------3------3--5p3-3---------------
b ------1---1----1--1-3-----0---0----3---------0---0----0------------------------
g ----2-------2-----------1-------1--1-------0-------0---------------------
D ------------------------------------------------------------------
A --0----------------------------------------------------------------
E ----------------------0--------------0-2-3------------------------

e--------2------3p2--------------1-------3-------1------------0-----0-------
b------3---3----3--------------1---1---1---1---1---1--------1---1---1-----------
g----2-------2---------------2-------2-------2-------2----0-------0---------
D--0------------------0-2-3---------------------------------------------
A-------------------------------------------------------3------------
E-------------------------------------------------------------------

e-------------1-------3-------1--------------0-------0-------------------
b-----------3---3---3---3---3---3----------0---0-----3-----------------------
g---------2-------2-------2-------2------1-------1---1---------------------
D-------0------------------------------------------------------------
A--3-4----------------------------------------------------------------
E-------------------------------------0------------------------------

This was the first tab i ever made but it`s very cool to play it. i think the girls are
running behind you if you are play this nofx rules nickelback sucks

OptimusPrime

Submitted by OptimusPrime at Sun 01 Dec, 2002 9:46 am

Author: ?
Composer: ?
Publisher: ?
Language: English

Reactions

CommonCrawl [Bot]

Follow Muzikum