The Eagles

The Eagles
Hotel California Ver 2 (Bass tab)

The Eagles
Hotel California
Bass Guitar Tablature

Tom Ballinger (tom-ballinger@lineone.net)

4/4 Time

>>>Intro

G ||----------------|----------------|----------------|----------------|
D ||----------------|----------------|----------------|----------------|
A ||----------------|9---------------|----------------|7---------------|
E ||7---------------|----------------|5---------------|----------------|

|----------------|----------------|----------------|----------------||
|----------------|----------------|----------------|----------------||
|----------------|5---------------|----------------|----------------||
|3---------------|----------------|0---------------|2---------------||

>>>Verse X2

||---------------------------------|-------11--------11--------------|
||------9---------9g9--------------|----11---------11--11------------|
||----9---------9-----9------------|9-9------------------9-----------|
||7-7------------------------------|---------------------------------|

|---------------------------------|-------9---------9---------------|
|------7---------7g7--------------|----9----------9---9-------------|
|----7---------7-----7------------|7-7------------------7-----------|
|5-5------------------------------|---------------------------------|

|---------------------------------|-------7---------7---------------|
|------5---------5g5--------------|----7----------7---7-------------|
|----5---------5-----5------------|5-5------------------5-----------|
|3-3------------------------------|---------------------------------|

>first time <
|---------------------------------|---------------------------------|
|------2---------2g2--------------|------4---------4---------4------|
|----2---------2-----2------------|----4---------4---------4--------|
|0-0------------------------------|2-2------------------------------|

>second time
|---------------------------------||
|------4---------4---------0-2-4--||
|2-2-4---------4---------4--------||
|---------------------------------||

>>>Chorus 1

||----------------------------2/---|7---------------7-------7--------|
||5---------------5-------5--------|--7-----------7-------7-----7\---|
||-5------------5-------5----------|----5----------------------------|
||---3-----------------------------|---------------------------------|

>first time <
|---------------------------------|---------------------------------|
|4---------------4-------4----2---|0----------------0---------2-4---|
|--4-----------4-------4----------|-----4-2-4-----------------------|
|----2----------------------------|---------------------------------|

>second time
|---------------------------------|---------------------------------||
|2---------------2-------2--------|----4-----------4-------4--------||
|--2-----------2-------2-----2----|--4-----------4-------4----------||
|----0----------------------------|2--------------------------------||

>>>Play Verse

>>>Chorus 2

||----------------------------2/---|7---------------7-------7--------|
||5---------------5-------5--------|--7-----------7-------7-----7\---|
||-5------------5-------5----------|----5----------------------------|
||---3-----------------------------|---------------------------------|

>first time <
|---------------------------------|---------------------------------|
|4---------------4-2---0----------|-----------------0---------2-4---|
|--4-----------4----------4---2---|4--------------------------------|
|----2----------------------------|---------------------------------|

>second time
|---------------------------------|---------------------------------||
|2---------------2-------2--------|4--------------------------------||
|--2-----------2-------2-----2----|---------------------------------||
|----0----------------------------|---------------------------------||

>>>CODA 1

||----------------|----------------|----------------|----------------|
||----------------|----------------|----------------|----------------|
||----------------|9---------------|----------------|7---------------|
||7---------------|----------------|5---------------|----------------|

|----------------|----------------|----------------|----------------|
|----------------|----------------|----------------|----------------|
|----------------|5---------------|----------------|----------------|
|3---------------|----------------|0---------------|2---------------|

|---------------------------------|-------11--------11--------------|
|------9---------9g9--------------|----11---------11--11------------|
|----9---------9-----9------------|9-9------------------9-----------|
|7-7------------------------------|---------------------------------|

|---------------------------------|-------9---------9---------------|
|------7---------7g7--------------|----9----------9---9-------------|
|----7---------7-----7------------|7-7------------------7-----------|
|5-5------------------------------|---------------------------------|

|---------------------------------|-------7---------7---------------|
|------5---------5g5--------------|----7----------7---7-------------|
|----5---------5-----5------------|5-5------------------5-----------|
|3-3------------------------------|---------------------------------|


|---------------------------------|---------------------------------|
|------2---------2g2--------------|------4---------4---------4------|
|----2---------2-----2------------|----4---------4---------4--------|
|0-0------------------------------|2-2------------------------------|

>>>CODA 2
< QUICK BASS RUN >
||---------------------------------|-------11--------11------|-11-9-----------|
||------9---------9g9--------------|----11---------11--11----|-----12-10------|
||----9---------9-----9------------|9-9------------------9---|----------------|
||7-7------------------------------|-------------------------|----------------|

|---------------------------------|-------9---------9---------------|
|------7---------7g7--------------|----9----------9---9-------------|
|----7---------7-----7------------|7-7------------------7-----------|
|5-5------------------------------|---------------------------------|

|---------------------------------|-------7---------7---------------|
|------5---------5g5--------------|----7----------7---7-------------|
|----5---------5-----5------------|5-5------------------5-----------|
|3-3------------------------------|---------------------------------|

>first time <
|--------------------------------|----------------------------------|
|------2---------2g2-------------|------4---------4---------4-------|
|----2---------2-----2-----------|----4---------4---------4---------|
|0-0-----------------------------|2-2-------------------------------|

>second time
|--------------------------------||
|------4---------4---------0-2-4-||
|2-2-4---------4---------4-------||
|--------------------------------||

>>>Play Verse with first time ending

>>>Outro

|---------------------------------|---------------------------------|
|---------------------------------|---------------------------------|
|---------------------------------|9-9-9-9-9-9-9-9-9-9-9-9-9---9----|
|7-7-7-7-7-7-7-7-7-7-7-7-7---7----|---------------------------------|

|---------------------------------|---------------------------------|
|---------------------------------|---------------------------------|
|---------------------------------|7-7-7-7-7-7-7-7-7-7-7-7-7---7----|
|5-5-5-5-5-5-5-5-5-5-5-5-5---5----|---------------------------------|

|---------------------------------|---------------------------------|
|5-5-5-5-5-5-5-5-5-5-5-5-5---5----|---------------------------------|
|---------------------------------|5-5-5-5-5-5-5-5-5-5-5-5-5---5----|
|---------------------------------|---------------------------------|

|---------------------------------|---------------------------------|
|---------------------------------|---------------------------------|
|---------------------------------|---------------------------------|
|0-0-0-0-0-0-0-0-0-0-0-0-0---0----|2-2-2-2-2-2-2-2-2-2-2-2-2---2----|

OptimusPrime

Submitted by OptimusPrime at Sun 01 Dec, 2002 9:46 am

Author: ?
Composer: ?
Publisher: ?
Language: English

Reactions

CommonCrawl [Bot]

Follow Muzikum