The Eagles

The Eagles
One Of These Nights (Bass tab)

THE EAGLES - "One of These Nights" - Bass Tab

Common Time(4/4)
Standard Tuning(EADG)

INTRO:
|------9/12----9-|-----9/12----9-|-----9/12----9-|-----9/12----9-|
|*----------12---|----------12---|----------12---|----------12---|
|*---------------|-5-r-----------|-3-r-----------|-3-r-----------|
|--0-r-----------|---------------|---------------|---------------|
1 2 & 3 4 & 1 2 & 3 4 & 1 2 & 3 4 & 1 2 & 3 4 &
_____
|1.
|-----9/12----9-|-----9/12----9-|-----9/12----9-|-----9/12----9--|
|----------12---|----------12---|----------12---|----------12---*|
|-0-r-----------|-0-r-----------|---------------|---------------*|
|---------------|---------------|-0-r-----------|-0-r------------|
1 2 & 3 4 & 1 2 & 3 4 & 1 2 & 3 4 & 1 2 & 3 4 &
______
|2.
|-------------|
|-------------|
|-2-2-2-2/0---|
|-------------|
1 & 2 & 3 4

VERSES/SOLO:
|--------------|-----------|-------------|-----------|
|*-------------|-----------|-------------|-------.-.-|
|*-7---7---5---|-5---5---2-|-3---3-----2-|-3---0-3-2-|
|--------7---7-|-------5---|-------3-5---|-----------|
1 2 & 3 & 4 1 2 & 3 4 1 2 & 3 & 4 1 2 & 3 4
______
|1.
|---------------|---------------|---------------|--------------|
|---------------|---------------|---------------|-------------*|
|-----------2---|-----------2---|-7---7---5---7-|-------------*|
|-5---5-0-3---3-|-5---5-0-3---3-|-------7---7---|-7---0-7-7-7--|
1 2 & 3 & 4 & 1 2 & 3 & 4 & 1 2 & 3 & 4 & 1 2 & 3 & 4
_____
|2.
|---------|
|---------|
|-.-------|
|-7-7-----|
1 2 3 4

CHORUS:
|-----------4/5-|-----------|-------------|-----------|
|-----4/7-5-----|-----4/7-5-|-----------4-|-----------|
|-3-------------|-3---------|-----5/7-5---|-----5-7-5-|
|---------------|-----------|-3-----------|-3---------|
1 2 & 3 & a 4 1 2 & 3 4 1 2 & 3 & 4 1 2 & 3 4

|-----------4/5-|-----------|---------------|-------------|
|-----4/7-5-----|-----4/7-5-|---------------|-------------|
|-3-------------|-3---------|---------------|-------------|
|---------------|-----------|-5---5-5-0-3-5-|-7-7-7-7/5---|
1 2 & 3 & a 4 1 2 & 3 4 1 2 & 3 & 4 & 1 & 2 & 3 4

END:
(repeat to fade-out)
|------------4/5-|-----------|-------------|------------|
|*-----4/7-5-----|-----4/7-5-|-----------4-|-----------*|
|*-3-------------|-3---------|-----5/7-5---|-----5-7-5-*|
|----------------|-----------|-3-----------|-3----------|
1 2 & 3 & a 4 1 2 & 3 4 1 2 & 3 & 4 1 2 & 3 4

By: Johari Taylor
E-mail: viking@powerup.com.au
More Bass Tabs: http://www.powerup.com.au/~viking/basstab.htm

OptimusPrime

Submitted by OptimusPrime at Sun 01 Dec, 2002 9:46 am

Author: ?
Composer: ?
Publisher: ?
Language: English

Reactions

CommonCrawl [Bot]

Follow Muzikum