Weezer
H Pipe (Bass tab)

#----------------------------------PLEASE NOTE------------------------------------------##
#This file is the author's own work and represents their interpretation of the song. #
#You may only use this file for private study, scholarship, or research. # # #----------------------------------------------------------------------------------------------##

Artist: Weezer
Album: Self-Titled (Green Album)
Song: Hash Pipe
\=Slide down
/=Slide up


MAIN RIFF-VERSES/GUITAR SOLO
***Slide down on E STRING for intro***
G|-------------------------------|
D|-------------------------------|
A|--0-0-2-3----------------------|
E|-------------------------------|

PRE-CHORUS
G|--------------------------------------------------------------------------------|
D|--------------------------------------------------------------------------------|
A|--------------------------------------- ---0-0-2-3--0-0-2-3--0-0-2-3--0-0-2-3---|
E|--5-5-5-5-5-5-5-5-3-3-3-3-4-4-4-4-----------------------------------------------|

CHORUS
G|-------------------------------------------------|
D|-------------------------------------------------|
A|-------------------------------------------------|
E|--5-5-5-5-5-5-5-5-3-3-3-3-4-4-4/8-8-8-8-8-8-8-8--|

G|-------------------------------------------------|
D|-------------------------------------------------|
A|-------------------------------------------------|
E|7-7-7-7-7-7-7-7-5-5-5-5-5-5-5-5-3-3-3-3-3-3-3-3--|

POST-CHORUS
***After the chorus when the song is done live Mikey just does random fills.***
***So experiment and have fun. If you want something, I usually do this***
G|-------------------------------------------------------|
D|--0-232-0----------------------------------------------|
A|-------------223-4-0-----------------------------------|
E|------------------------4-4-8--------------------------|

BRIDGE-Immediately after post chorus on 2nd and 3rd chorus
G|--------------------------------------------------------------|
D|--------------------------------------------------------------|
A|--10-10-10-10-10-10-10-10-10-10-10-10-10-10-10-10\------------|
E|--------------------------------------------------------------|

SONG STRUCTURE: It follows this pattern the whole song except after the 2nd and 3rd post-choruses the bridge is put in before going back to the verse.
Verse
Pre-chorus
Chorus
Post-chorus
(Bridge)

Copyrights
Author: ?
Composer: ?
Publisher: ?
More details
Language: English

Reactions

CommonCrawl [Bot]

Follow Muzikum