Avril Lavigne

Avril Lavigne
Mobile Ver 4 (Guitar tab)

Song: Im With you
Artist:" Avril Lavigne
Album: Let go
Tabbed By: Kanjiono22

Standard Tuning..Im no good with writing out strum patterns..
So jsut listen to the song, and you should have no problem wiht it.
This song is really kick ass. :) enjoy.
If ya got any corrections, or ya just want to say hey my email is
klpike@mail.com



Intro;
e|-0---0---0---------
B|-0---0---0---------
G|-2---4---7--------- X4
D|-2---4---7---------
A|-0---2---5---------
E|-----0---0---------
Verse 1: same as Intro

Im standing on the bridge
All alone in the dark, I thought that you'd be here by now
There's nothing but the rain, no footsteps on the ground
Been listing, but theres no sound.

Pre Chorus
e|-0------0-----0----0---------------
B|-0------0-----0----0---------------
G|-9------11----9----11--------------
D|-9------11----9----11--------------
A|-7------9-----7----9---------------
E|-----------------------------------

Isn't anyone trying to find me
Wont somebody come take me home!!!

Chorus:
e---0---0------
B---0---0------
G---9---7------ Play that five or six times
D---9---7------
A---7---5------
E--------------
Its a *** Cold NIght, Trying to figure out this life
Take me by the hand, Take me somewhere new,
I dont know who you are, but Im with you

Verse 2: same as verse one
Im looking for a place, searching for a face
is there anybody here I know
Nothings going right, everythings a mess
and no one likes to be alone.

Pre Chorus : same as before
Chorus: same as before

Bridge:
e----0--0----0---0---0--------------------------
----0--0----0---0---0--------------------------
----9--11---9---7---9--------------------------
----9--11---9---7---9--------------------------
----7--9----7---5---7--------------------------
E-----------------------------------------------


Chorus
Chorus

OptimusPrime

Submitted by OptimusPrime at Sun 30 Oct, 2005 9:22 am

Author: ?
Composer: ?
Publisher: ?
Language: English

Reactions

CommonCrawl [Bot]

Follow Muzikum