Avril Lavigne

Avril Lavigne
The Visit (rare Live) (Guitar tab)

This is an AMAZING song and funny preformed by avril when she was in calgary for a more 'mature' audience she said. lol
Great song. If anyone wants anymore great tabs by her email me at avril_4MAYOR@hotmail.com I also have finger11 and hoobastank
tabs.

__ HI YO!


Enjoy!


intro *play twice*
-|----------------------------------------------------------------------------------
-|----------------------------------------------------------------------------------
-|----------------------------------------------------------------------------------
-|---0-0-0--0-0-0--0----0---0-0-----------------------------------------------------
-|---0-0-0--0-0-0--0----0---0-0-----------------------------------------------------
-|---0-0-0--3-3-3--5----5---5-5------------------------------------------------------

E G
andrew,,,,,,,dont cop out on meeeeee--ee

E A
andrew.......dont tell me you have no money

E A
andrew.......you can eat our fooo-oo-ood

E D
andrew.......we dont care if your ruuuuuudddee


Bridge:

Dm Am Am7

E G
andrew! lets get drunk together

A
strap you down with my leather

C
theres so many things we can do

Am
eventho your just a jew

E
andrew if only you knew

D Dm
i fucked you when you where on glue


andrewww........


-|----------------------------------------------------------------------------------
-|--------------------------------------------------------------------0--1-1--------
-|---2----2----0----3----2----2----0----------------------------------0--2-2--------
-|---0----3----2----0----0----3----2----2----2----0----2----3----3------------------
-|--------------------------------------0----3----2----0----0----3----2--0-0--------
-|------------------------------------------------------------------------------3b--

"oooo oooo oooo oooo oooooo oooooo oo oooooooo oooo oo oooo oooo ooooo ooooo"

avirl

Submitted by avirl at Thu 30 Sep, 2004 3:10 am

Author: ?
Composer: ?
Publisher: ?
Language: English

Reactions

CommonCrawl [Bot]

Follow Muzikum