Avril Lavigne

Avril Lavigne
Unwanted Ver 3 (Guitar tab)

Name - Unwanted
Artist - Avril Lavigne
Album - Let Go, track #6

Standard Tuning

I am pretty sure this is right.This is my first tab so if there is
any suggestions email at Die_Hard_Friends_Fan@msn.com!
Listen to the song while u play it will help u out more!PLEASE RATE THIS!
Thanx Again!

Beginning
E---------------------------------
B---------------------------------
G-0-0-0--0-0-0--0-0-0--0-0-0
D-2-2-2--2-2-2--4-4-4--5-5-5 REPEAT x2
A-2-2-2--3-3-3--5-5-5--4-4-4
E-0-0-0--0-0-0--0-0-0--0-0-0

E---------------------------------
B---------------------------------
G---------------------------------
D------2------2----4----2------ PLAY EACH STRING SEPERATLY!
A---2------3-----5----2-------- Repeat A few times.Then go back 2 Beginning
E-0-----0-----0-----0----------


Thats Pretty much it if u have any problems email me!!!!!!
Like I said its easier when u listen to the song

OptimusPrime

Submitted by OptimusPrime at Thu 14 Aug, 2003 4:00 pm

Author: ?
Composer: ?
Publisher: ?
Language: English

Reactions

CommonCrawl [Bot]

Follow Muzikum