Avril Lavigne

Avril Lavigne
Unwanted (Bass tab)

avril lavigne - unwanted
bass tab

This is the ONLY rock song of Avril's album; the rest of the album sucks,
but this song really kicks every ass, so enjoy it!
It's a really simple song to play, and I hope you will have fun wih this tab.
If you have any correction, please email me at afinocchiella@libero.i

Main riff (with overdrive in the intro and the chorus,
instead very gently in the verse):
1|---------------------|
2|-----------0-0-------|
3|------3-3--------0-0-|
4|-0-0-----------------|

Pre-chorus:
1|--------------------------------------------|
2|----0--------------------0------------------|
3|------------0--------------------0----------|
4|--------------------------------------------|
"I wanted to know you, I wanted to show you!"

OptimusPrime

Submitted by OptimusPrime at Thu 14 Aug, 2003 4:00 pm

Author: ?
Composer: ?
Publisher: ?
Language: English

Reactions

CommonCrawl [Bot]

Follow Muzikum