Avril Lavigne

Avril Lavigne
Tomorrow Ver 3 (Guitar tab)

This song is gr8!
Capo on second fret!

Verse/Intro
F#--3--3--3-3-3-3--3-3-3--3--3--3-3--3-3--3--3-3-3---------
C#--3--3--3-3-3-3--3-3-3--3--3--3-3--3-3--3--3-3-3---------
A---0--0--0-0-0-0--0-0-0--0--0--0-0--0-0--0--0-0-0---------
E---0--0--0-0-2-2--2-2-2--2--2--2-2--2-2--2--2-2-2---------
B---2--2--2-2-2-2--2-2-2--3--3--3-3--3-3--3--3-3-3---------
F#--3--3--3-3-0-0--0-0-0-----------------------------------

Chorus
F#--0--0-0-0--0-0--0-0-0-0--2--2-2-2--2-2--2-2-2-2---------
C#--0--0-0-0--0-0--0-0-0-0--3--3-3-3--3-3--3-3-3-3---------
A---0--0-0-0--0-0--0-0-0-0--4--4-4-4--4-4--4-4-4-4---------
E---2--2-2-2--2-2--2-2-2-2--4--4-4-4--4-4--4-4-4-4---------
B---2--2-2-2--2-2--2-2-2-2--2--2-2-2--2-2--2-2-2-2---------
F#--0--0-0-0--0-0--0-0-0-0--2--2-2-2--2-2--2-2-2-2---------

(continued chorus)
F#--3--3-3-3--3-3--3-3-3-3--2--2-2-2--2-2--2-2-2-2---------
C#--3--3-3-3--3-3--3-3-3-3--3--3-3-3--3-3--3-3-3-3---------
A---0--0-0-0--0-0--0-0-0-0--4--4-4-4--4-4--4-4-4-4---------
E---2--2-2-2--2-2--2-2-2-2--4--4-4-4--4-4--4-4-4-4---------
B---3--3-3-3--3-3--3-3-3-3--2--2-2-2--2-2--2-2-2-2---------
F#--------------------------2--2-2-2--2-2--2-2-2-2---------

Riff
F#---------------------------------------------------------
C#---------------------------------------------------------
A---------2-0---0-------2-0---0-------2-0---0------2-0---0-
E-----0-------0-----0-------0-----0-------0-----0------0---
B----------------------------------------------------------
F#--3---3---------3---3---------0---0---------0---0--------

(continued)
F#---------------------------------------------------------
C#---------------------------------------------------------
A---------2-0---0-------2-0---0-------2-0---0------2-0---0-
E-----0-------0-----0-------0-----0-------0-----0------0---
B----3--3----------3--3----------2--2---------2---2--------
F#---------------------------------------------------------

Fill
e-----------12-------12-------12-------12-------12---------
B-----12-------12-------12-------12-------12-------12------
G--14----14-------14-------14-------14-------14-------14---
D----------------------------------------------------------
A----------------------------------------------------------
E----------------------------------------------------------


(Hey, yeah bits)

F#---3--3---3-3-33-3-3-3------3--3---3-3-33-3-3-3----------
C#---3--3---3-3-33-3-3-3------3--3---3-3-33-3-3-3----------
A----0--0---0-0-00-0-0-0------0--0---0-0-00-0-0-0----------
E----0--0---0-0-00-0-0-0------2--2---2-2-22-2-2-2----------
B----2--2---2-2-22-2-2-2------3--3---3-3-33-3-3-3----------
F#---3--3---3-3-33-3-3-3-----------------------------------


thats all :D

any comments send to emzsk8ergurl@hotmail.com

cheers,
J

OptimusPrime

Submitted by OptimusPrime at Thu 14 Aug, 2003 4:00 pm

Author: ?
Composer: ?
Publisher: ?
Language: English

Reactions

CommonCrawl [Bot]

Follow Muzikum