Avril Lavigne

Avril Lavigne
Things Ill Never Say Live (Guitar tab)

Artist - Avril Lavigne
Song name � Things I�ll Never Say (Live on Radio One)
Album - Let Go

Tabbed by Navid � Navidb86@hotmail.com
Tuning - Standard (EADGBE)

Bm - x24432 || Em - 022000
G - 3x0033 || A - x02220
D - xx0232 || C - x32010
Asus2 � x00220 ||

h = hammer on pm = palm mute
/ = slide up x = scratch
\ = slide down b = bend
~ = vibrato r = release bend


[INTRO]
Guitar 1
****** * ****** * ****** * ****** *
e/|--2--------0--------2--------3------------------------|\
B||--3--------2--------3--------3------------------------||
G||--2--------2--------4--------0------------------------||
D||--0--------2--------4--------0------------------------||
A||-----------0--------2--------x------------------------||
E\|--------------------x--------3------------------------|/
| |
| Guitar 2 distorted comes in the second time |
| |
e/|------------------------------------------------------|\
B||------------------------------------------------------||
G||--7--------6--------7---------------------------------||
D||-----------------------------5/9----------------------||
A||--5--------4--------5---------------------------------||
E\|-----------------------------3/7----------------------|/


[VERSE 1]
Guitar 1
** * * ** * * ** * * ** * *
e/|--2--------3--------2--------0------------------------|\
B||--3--------3--------3--------2------------------------||
G||--4--------0--------2--------2------------------------||
D||--4--------0--------0--------2------------------------||
A||--2--------x-----------------0------------------------||
E\|--x--------3------------------------------------------|/
| |
| Guitar 2 distorted comes in the second time |
| |
e/|------------------------------------------------------|\
B||------------------------------------------------------||
G||------------------------------------------------------||
D||--5--------7----------4--------2----------------------||
A||---5--------7----------4--------2---------------------||
E\|----5--------7----------4--------2--------------------|/


[PRE CHORUS]
Guitar 1
** * * ** * * ** * *
e/|--0--------3--------0--------0------------------------|\
B||--0--------3--------0--------0------------------------||
G||--0--------0--------0--------2------------------------||
D||--2--------0--------2--------2------------------------||
A||--2--------x--------2--------0------------------------||
E\|--0--------3--------0--------x------------------------|/
| |
| Guitar 2 distorted |
| |
e/|------------------------------------------------------|\
B||------------------------------------------------------||
G||------------------------------------------------------||
D||--2--------5--------2--------5/9----------------------||
A||--2--------5--------2---------------------------------||
E\|--0--------3--------0--------3/7----------------------|/


[CHORUS]
Guitar 1
****** * ****** * ****** * ****** * ****** *
e/|--2--------0--------2--------3---------0---------0----|\
B||--3--------2--------3--------3---------0---------1----||
G||--2--------2--------4--------0---------0---------0----||
D||--0--------2--------4--------0---------2---------2----||
A||-----------0--------2--------x---------2---------3----||
E\|--------------------x--------3---------0---------x----|/
| |
| Guitar 2 distorted |
| |
e/|------------------------------------------------------|\
B||---------------------------------------9~--7~---------||
G||--7--------6--------7---------------------------------||
D||-----------------------------5--5-7-------------------||
A||---5--------4--------5--------------------------------||
E\|------------------------------3-----------------------|/


[Fill]
Guitar 1 plays the chorus again
Guitar 2 distorted
e/|--10----10----10----9----9----9-----------------------|
B||-----10----10----10---10---10---10�-------------------|
G||------------------------------------------------------|
D||------------------------------------------------------|
A||------------------------------------------------------|
E\|------------------------------------------------------|

e/|------------------------------------------------------|\
B||--b8r--b7---p8-7-7-7-7-7-b7r--b6-b6-5--4-h6-3-h5-2~~~~||
G||------------------------------------------------------||
D||------------------------------------------------------||
A||------------------------------------------------------||
E\|------------------------------------------------------|/


[VERSE 2]
Guitar 1
** * * ** * * ** * * ** * *
e/|--2--------3--------2--------0------------------------|
B||--3--------3--------3--------2------------------------|
G||--4--------0--------2--------2------------------------|
D||--4--------0--------0--------2------------------------|
A||--2--------x-----------------0------------------------|
E\|--x--------3------------------------------------------|
| |
| Guitar 2 distorted |
| |
e/|------------------------------------------------------|
B||------------------------------------------------------|
G||------------------------------------------------------|
D||--------------------5----------5----------------------|
A||---------------------5--------5-----------------------|
E\|----------------------5------5------------------------|

Guitar 1
** * * ** * * ** * * ** * *
e/|--2--------3--------2--------0------------------------|\
B||--3--------3--------3--------2------------------------||
G||--4--------0--------2--------2------------------------||
D||--4--------0--------0--------2------------------------||
A||--2--------x-----------------0------------------------||
E\|--x--------3------------------------------------------|/
| |
| Guitar 2 distorted |
| |
e/|------------------------------------------------------|\
B||------------------------------------------------------||
G||------------------------------------------------------||
D||--3--------3-----------7~~~----5----------------------||
A||---3------3---------7---------5-----------------------||
E\|----3----3-------------------5------------------------|/


[PRE CHORUS]
Guitar 1
** * * ** * * ** * *
e/|--0--------3--------0--------0------------------------|\
B||--0--------3--------0--------0------------------------||
G||--0--------0--------0--------2------------------------||
D||--2--------0--------2--------2------------------------||
A||--2--------x--------2--------0------------------------||
E\|--0--------3--------0--------x------------------------|/
| |
| Guitar 2 distorted |
| |
e/|------------------------------------------------------|\
B||------------------------------------------------------||
G||------------------------------------------------------||
D||--2--------5--------2--------5/9----------------------||
A||--2--------5--------2---------------------------------||
E\|--0--------3--------0--------3/7----------------------|/


[CHORUS]
Guitar 1
****** * ****** * ****** * ****** * ****** *
e/|--2--------0--------2--------3---------0---------0----|\
B||--3--------2--------3--------3---------0---------1----||
G||--2--------2--------4--------0---------0---------0----||
D||--0--------2--------4--------0---------2---------2----||
A||-----------0--------2--------x---------2---------3----||
E\|--------------------x--------3---------0---------x----|/
| |
| Guitar 2 distorted |
| |
e/|------------------------------------------------------|\
B||---------------------------------------9-----9-�7b-r--||
G||--7--------6--------7--------------------9�7----------||
D||-----------------------------5--5-7-------------------||
A||---5--------4--------5--------------------------------||
E\|------------------------------3-----------------------|/


[BRIDGE]
Guitar 1
** ** ** **
e/|--2--------0--------3-----------3---------------------|
B||--3--------2--------3-----------3---------------------|
G||--4--------2--------0-----------0---------------------|
D||--4--------2--------0-----------0---------------------|
A||--2--------0--------x-----------x---------------------|
E\|--x--------x--------3-----------3---------------------|
| |
| Guitar 2 distorted |
| |
e/|--------------------------------7--5------------------|
B||--5------------------b3b3b3~2---------8---------------|
G||-----------5~-----------------------------------------|
D||------------------------------------------------------|
A||------------------------------------------------------|
E\|------------------------------------------------------|

Guitar 1
** ** **
e/|--2--------0--------3-----------0---------------------|\
B||--3--------2--------3-----------0---------------------||
G||--4--------2--------0-----------0---------------------||
D||--4--------2--------0-----------2---------------------||
A||--2--------0--------x-----------2---------------------||
E\|--x--------x--------3-----------0---------------------|/
| |
| Guitar 2 distorted |
| |
e/|--------------------------------7--5------------------|\
B||--7-----------------5--7b~5-----------8--6------------||
G||-----------7~-------------5---------------------------||
D||------------------------------------------------------||
A||------------------------------------------------------||
E\|------------------------------------------------------|/


[INTERLUDE]
Guitar 1
** **
e/|--0--------3--------0---------------------------------|\
B||--0--------3--------0---------------------------------||
G||--0--------0--------0---------------------------------||
D||--2--------0--------2---------------------------------||
A||--2--------x--------2---------------------------------||
E\|--0--------3--------0---------------------------------|/
| |
| Guitar 2 distorted |
| pm... |
e/|--10~~~~~-----------10--------------------------------|\
B||-----------8/7~~------10------------------------------||
G||-------------------------9----777777777799999/--------||
D||------------------------------777777777799999/--------||
A||------------------------------555555555577777/--------||
E\|------------------------------------------------------|/


[CHORUS]
Guitar 1
****** * ****** * ****** * ****** * ****** *
e/|--2--------0--------2--------3---------0---------0----|\
B||--3--------2--------3--------3---------0---------1----||
G||--2--------2--------4--------0---------0---------0----||
D||--0--------2--------4--------0---------2---------2----||
A||-----------0--------2--------x---------2---------3----||
E\|--------------------x--------3---------0---------x----|/
| |
| Guitar 2 distorted |
| |
e/|------------------------------------------------------|\
B||---------------------------------------9~--7~-5b-5~~\-||
G||--7--------6--------7---------------------------------||
D||-----------------------------5--5-7-------------------||
A||---5--------4--------5--------------------------------||
E\|------------------------------3-----------------------|/


Then Chorus again, and Guitar 2 ends like this

Guitar 2 distorted

e/|-----------------x------------------------------------|\
B||-----------------1------------------------------------||
G||-----------------0---0--------------------------------||
D||--2-----------2--2------------------------------------||
A||-----------3-----3------------------------------------||
E\|----0------------x------------------------------------|/

OptimusPrime

Submitted by OptimusPrime at Thu 14 Aug, 2003 4:00 pm

Author: ?
Composer: ?
Publisher: ?
Language: English

Reactions

CommonCrawl [Bot]

Follow Muzikum