Avril Lavigne

Avril Lavigne
Skater Boi Ver 3 (Guitar tab)

Avril Lavigne

Song: Sk8er Boi

Album: Lets Go

Tabbed by Rudy Guzman

email: guzman_84@hotmail.com


gt1
repeat 2 times
e|--------------------------------------------|
B|--------------------------------------------|
G|--9/11\9~~--9/11\9~~~--9/11\9~~--9/11\9---7-|
D|--------------------------------------------|
A|--7/-9\7----7/-9\7-----7/-9\7----7/-9\7---5-|
E|--------------------------------------------|
gt2 repeat
e|----|-----------------------------------------|
B|----|-----------------------------------------|
G|----|--777777777------------------------------|
D|----|--777777777-777777777-99999999-88888-7777|
A|12/-|--555555555-777777777-99999999-88888-7777|
E|----|------------555555555-77777777-66666-5555|

verse
gt1
e|---------------------------------------|
B|---------------------------------------|
G|-777777777-----------------------------|
D|-777777777-777777777-99999999-88888888-|
A|-555555555-777777777-99999999-88888888-|
E|-----------555555555-77777777-66666666-|
gt2
e|---------------------------------------|
B|---------------------------------------|
G|---7--7--------------------------------|
D|-7777777-----7--7------9--9------8--8--|
A|-5555555---7777777---9999999--8888888--|
E|-----------5555555---7777777--6666666--|
gt1
e|-----------------------------------------------|
B|-----------------------------------------------|
G|-777777777-------------------------------------|
D|-777777777-777777777-99999999-1010101010101010-|
A|-555555555-777777777-99999999-1010101010101010-|
E|-----------555555555-77777777-8-8-8-8-8-8-8-8--|
gt2
e|-----------------------------------------------|
B|-----------------------------------------------|
G|---7--7----------------------------------------|
D|-7777777-----7--7------9--9-------10----1010---|
A|-5555555---7777777---9999999--10101010101010---|
E|-----------5555555---7777777--8-8-8-8-8-8-8----|


gt1
e|---------------------------------------|
B|---------------------------------------|
G|-777777777-----------------------------|
D|-777777777-777777777-99999999-88888888-|
A|-555555555-777777777-99999999-88888888-|
E|-----------555555555-77777777-66666666-|
gt2
e|---------------------------------------|
B|---------------------------------------|
G|----7----7-----------------------------|
D|--7--7-777---7--7------9--9-----8--8---|
A|-5-----555-7777777---9999999--8888888--|
E|-----------5555555---7777777--6666666--|

gt1
e|-----------------------------------------------|
B|-----------------------------------------------|
G|-777777777-------------------------------------|
D|-777777777-777777777-99999999-1010101010101010-|
A|-555555555-777777777-99999999-1010101010101010-|
E|-----------555555555-77777777-8-8-8-8-8-8-8-8--|
gt2
e|-----------------------------------------------|
B|-----------------------------------------------|
G|-----7---7-------------------------------------|
D|---7--7777---7--7------9--9-------10----1010---|
A|-5-----555-7777777---9999999--10101010101010---|
E|-----------5555555---7777777--8-8-8-8-8-8-8----|



chorus
repeat 3 times
e|-----------------------------------------------|
B|-----------------------------------------------|
G|-------------555555555--3333333333-2222222222--|
D|-3333333333--555555555--3333333333-2222222222--|
A|-3333333333--333333333--1111111111-0000000000--|
E|-1111111111------------------------------------|

e|----------------------------------------------------|
B|----------------------------------------------------|
G|-------------555555555--3333333333-222222--33333333-|
D|-3333333333--555555555--3333333333-222222--33333333-|
A|-3333333333--333333333--1111111111-000000--11111111-|
E|-1111111111-----------------------------------------|



verse
(repeat gt1)

gt2 (follow gt1)
pm...............................................
e|------5----------------------------------------------|
B|----7---7----------5--------------7------------------|
G|--7--------------6---6----------7---7----------------|
D|----------7777-7--------------9----------------------|
A|----------5555----------7777----------9999--8888888--|
E|------------------------5555----------7777--6666666--|

gt2
pm............................. ......... ......
e|------5--------------------------14----------------------|
B|----7---7----------5----------15----15-------------------|
G|--7--------------6---6-----------------------------------|
D|----------7777-7-----------------------------------------|
A|----------5555----------7777----------999-1010-10-1212-12|
E|------------------------5555----------777-8-8--8--1010-10|

gt2
pm...............................................
e|------5----------------------------------------------|
B|----7---7----------5--------------7------------------|
G|--7--------------6---5----------7---7----------------|
D|----------7777-7--------------9----------------------|
A|----------5555----------7777----------9999--8888888--|
E|------------------------5555----------7777--6666666--|

pm........................................
e|------5----------------------------------------------|
B|----7---7----------5--------------7------------------|
G|--7--------------6---6----------7---7----------------|
D|----------7777-7--------------9----------------------|
A|----------5555----------7777----------9999-1010------|
E|------------------------5555----------7777-8-8-------|


e|------------------------------|
B|------------------------------|
G|--12--------------------------|
D|--10--12---9---7-------10--12-|
A|------10---7---5---6---8---10-|
E|-------------------4----------|

this is other way u can try that last riff
e|-----------------------|
B|-----------------------|
G|-10--------------------|
D|----10-----------------|
A|-------10-------8--10--|
E|----------10--8--------|

chorus
repeat 3 times
e|-----------------------------------------------|
B|-----------------------------------------------|
G|-------------555555555--3333333333-2222222222--|
D|-3333333333--555555555--3333333333-2222222222--|
A|-3333333333--333333333--1111111111-0000000000--|
E|-1111111111------------------------------------|

e|----------------------------------------------------|
B|----------------------------------------------------|
G|-------------555555555--3333333333-222222--33333333-|
D|-3333333333--555555555--3333333333-222222--33333333-|
A|-3333333333--333333333--1111111111-000000--11111111-|
E|-1111111111-----------------------------------------|

gt2 ending chorus
e|-------------------------|
B|---17b--(17)--(17)--(17)-|
G|-------------------------|
D|-------------------------|
A|-------------------------|
E|-------------------------|


e|-------------------|
B|-------------------|
G|--7/13--7/12--8/13-|
D|-------------------|
A|-------------------|
E|-------------------|

interlude
gt1
e|-------------------------|
B|--8/10-8--8/10-8--8/10-8-|
G|-------------------------|
D|--5/7--5--5/7--5--5/7--5-|
A|-------------------------|
E|-------------------------|

gt2
e|-----------------------------------------------|
B|-----------------------------------------------|
G|-------------555555555--3333333333--6--6--6--6-|
D|-3333333333--555555555--3333333333--6--6--6--6-|
A|-3333333333--333333333--1111111111--4--4--4--4-|
E|-1111111111------------------------------------|


verse
gt1 repeat 2 times
e|--------------------------------------------------------------------|
B|--------------------------------------------------------------------|
G|-777777777777---------------------5555555555--3333333333-2222222222-|
D|-777777777777--33333333333333333--5555555555--3333333333-2222222222-|
A|-555555555555--33333333333333333--3333333333--1111111111-0000000000-|
E|---------------11111111111111111------------------------------------|
gt1
e|--------------------------------------------------------------------|
B|--------------------------------------------------------------------|
G|-777777777777---------------------5555555555--3333333333-2222222222-|
D|-777777777777--33333333333333333--5555555555--3333333333-2222222222-|
A|-555555555555--33333333333333333--3333333333--1111111111-0000000000-|
E|---------------11111111111111111------------------------------------|

gt2 repeat 2 times
e|--------------------------------------------------------------------------------------|
B|--------------------------8-------------------------------------8---------------------|
G|-------10---------10---10---10------------10-----------10----10---10------------------|
D|----10---10----10---10---------10------10-----10----10----10---------10-------10------|
A|--8----------8--------------------8----------------------------------------10----10---|
E|-------------------------------------8------------8----------------------8------------|

e|---------------------------------------------------------------------|
B|---------------------------------------------------------------------|
G|---------------------------------------------------------------------|
D|------10----------10---------10---------8-------8--------7--------7--|
A|---10----10----10----10---10----10----8---8---8---8----7---7----7---7|
E|-8-----------8----------8-----------6-------6--------5--------5------|




e|-----------------------------------------------|
B|-----------------------------------------------|
G|-7-(7)----7---7--------------------------------|
D|-7-(7)----7---7------7---7-----9--9-----8--8---|
A|-5-(5)--55--55--5----7---7-----9--9-----8--8---|
E|-------------------55--55-5--77-77-7--66-66-6--|


e|-----------------------------------|
B|-----------------------------------|
G|----7----7-------------------------|
D|--7--7-777---7--7------9--9----10--|
A|-5-----555-7777777---9999999---10--|
E|-----------5555555---7777777---8---|

i�m with the skater boi.....
repeat 3 times
e|-----------------------------------------------|
B|-----------------------------------------------|
G|-------------555555555--3333333333-2222222222--|
D|-3333333333--555555555--3333333333-2222222222--|
A|-3333333333--333333333--1111111111-0000000000--|
E|-1111111111------------------------------------|

there�s a piano in this part of the song
gt2 repeat
e|-19-17-16------|
B|----------17---|
G|---------------|
D|---------------|
A|---------------|
E|---------------|

e|----------------------------------------------------|
B|----------------------------------------------------|
G|-------------555555555--3333333333-222222--33333333-|
D|-3333333333--555555555--3333333333-222222--33333333-|
A|-3333333333--333333333--1111111111-000000--11111111-|
E|-1111111111-----------------------------------------|

switch picks

OptimusPrime

Submitted by OptimusPrime at Thu 14 Aug, 2003 4:00 pm

Author: ?
Composer: ?
Publisher: ?
Language: English

Reactions

CommonCrawl [Bot]

Follow Muzikum