Avril Lavigne

Avril Lavigne
Complicated Acoustic Ver 3 (Guitar tab)

------|--1--|--1--|--1--|--0--|-----------------------------------------------
------|--3--|--3--|--1--|--1--|-----------------------------------------------
------|--2--|--2--|--2--|--0--|-----------------------------------------------
------|--0--|--3--|--3--|--2--|-----------------------------------------------
------|--0--|--1--|--3--|--3--|-----------------------------------------------
------|-----|-----|--1--|-----|-----------------------------------------------
Intro:Dm/A Bmaj7 F C (2x)

--------|--1--|--5--|--1--|--3--|---------------------------------------------
--------|--1--|--6--|--1--|--3--|---------------------------------------------
--------|--2--|--7--|--3--|--5--|---------------------------------------------
--------|--3--|--7--|--3--|--5--|---------------------------------------------
--------|--3--|--5--|--1--|--3--|---------------------------------------------
--------|--1--|--5--|--1--|--3--|---------------------------------------------
Verse 1: F Dm/A B/F C/G (2x)

-------|--1--|--5--|--1--|--3--|----------------------------------------------
-------|--1--|--6--|--1--|--3--|----------------------------------------------
-------|--3--|--7--|--3--|--5--|----------------------------------------------
-------|--3--|--7--|--3--|--5--|----------------------------------------------
-------|--1--|--5--|--1--|--3--|----------------------------------------------
-------|--1--|--5--|--1--|--3--|----------------------------------------------
Bridge: B/F Dm/A B/F C/G

-------|--5--|--1--|--1--|--3-----|--3--|--6--|-------------------------------
-------|--6--|--1--|--1--|--3-----|--3--|--6--|-------------------------------
-------|--7--|--3--|--2--|--5-----|--3--|--7--|-------------------------------
-------|--7--|--3--|--3--|--5-----|--5--|--8--|-------------------------------
-------|--5--|--1--|--3--|--3-----|--5--|--8--|-------------------------------
-------|--5--|--1--|--1--|--3-----|--3--|--6--|-------------------------------
Chorus:Dm/A B/F F C/G (3x) Gm B

------|-----|------|----------------------------------------------------------
------|-----|------|----------------------------------------------------------
------|--10-|------|----------------------------------------------------------
------|--10-|------|----------------------------------------------------------
------|--8--|------|----------------------------------------------------------
------|-----|--8\--|----------------------------------------------------------
Intro: F

--------|--1--|--5--|--1--|--3--|---------------------------------------------
--------|--1--|--6--|--1--|--3--|---------------------------------------------
--------|--2--|--7--|--3--|--5--|---------------------------------------------
--------|--3--|--7--|--3--|--5--|---------------------------------------------
--------|--3--|--5--|--1--|--3--|---------------------------------------------
--------|--1--|--5--|--1--|--3--|---------------------------------------------
Verse 2: F Dm/A B/F C/G (2x)

-------|--1--|--5--|--1--|--1--|----------------------------------------------
-------|--1--|--6--|--1--|--1--|----------------------------------------------
-------|--3--|--7--|--3--|--3--|----------------------------------------------
-------|--3--|--7--|--3--|--3--|----------------------------------------------
-------|--1--|--5--|--1--|--1--|----------------------------------------------
-------|--1--|--5--|--1--|--1--|----------------------------------------------
Bridge: B/G Dm/A B/G C/G

-------|--5--|--1--|--1--|--3-----|--3--|--6--|-------------------------------
-------|--6--|--1--|--1--|--3-----|--3--|--6--|-------------------------------
-------|--7--|--3--|--2--|--5-----|--3--|--7--|-------------------------------
-------|--7--|--3--|--3--|--5-----|--5--|--8--|-------------------------------
-------|--5--|--1--|--3--|--3-----|--5--|--8--|-------------------------------
-------|--5--|--1--|--1--|--3-----|--3--|--6--|-------------------------------
Chorus:Dm/A B/F F C/G (3x) Gm B

------|-----|------|------|------|------|-------------------------------------
------|-----|------|------|------|------|-------------------------------------
------|--10-|--10--|--10--|--10--|--9---|-------------------------------------
------|--10-|--10--|--10--|--10--|--10--|-------------------------------------
------|--8--|--8---|--8---|--8---|--10--|-------------------------------------
------|-----|--10--|--6---|--8---|--8---|-------------------------------------
Intro: F F/D F/B Csus C

--------|------|------|------|------|-----------------------------------------
--------|------|------|------|------|-----------------------------------------
--------|--10--|--10--|--10--|------|-----------------------------------------
--------|--10--|--10--|--10--|--10--|-----------------------------------------
--------|--8---|--8---|--8---|--10--|-----------------------------------------
--------|------|--10--|--6---|--8---|-----------------------------------------
Verse 3: F F/D F/B C

-------|-----|--5--|-----|------|---------------------------------------------
-------|-----|--6--|-----|------|---------------------------------------------
-------|-----|--7--|-----|------|---------------------------------------------
-------|--8--|--7--|--8--|--10--|---------------------------------------------
-------|--8--|--5--|--8--|--10--|---------------------------------------------
-------|--6--|--5--|--6--|--8---|---------------------------------------------
Bridge: B Dm/A B C

-------|--5--|--1--|--1--|--3-----|--3--|--6--|-----|-------------------------
-------|--6--|--1--|--1--|--3-----|--3--|--6--|-----|-------------------------
-------|--7--|--3--|--2--|--5-----|--3--|--7--|--9--|-------------------------
-------|--7--|--3--|--3--|--5-----|--5--|--8--|--8--|-------------------------
-------|--5--|--1--|--3--|--3-----|--5--|--8--|--7--|-------------------------
-------|--5--|--1--|--1--|--3-----|--3--|--6--|--8--|-------------------------
Chorus:Dm/A B/F F C/G (3x) Gm B C7

------|--1--|--1--|--1--|--3-----|--3--|--6--|--------------------------------
------|--3--|--1--|--1--|--3-----|--3--|--6--|--------------------------------
------|--2--|--3--|--2--|--5-----|--3--|--7--|--------------------------------
------|--0--|--3--|--3--|--5-----|--5--|--8--|--------------------------------
------|--0--|--1--|--3--|--3-----|--5--|--8--|--------------------------------
------|-----|--1--|--1--|--3-----|--3--|--6--|--------------------------------
Outro:Dm/A B/F F C/G (3x) Gm B

OptimusPrime

Submitted by OptimusPrime at Thu 14 Aug, 2003 4:00 pm

Author: ?
Composer: ?
Publisher: ?

Reactions

CommonCrawl [Bot]

Follow Muzikum