Avril Lavigne

Avril Lavigne
Anything But Ordinary (Bass tab)

Verse:
G|----------------------------|
D|----------------------------|
A|-3-3-3----------------------|
E|------3-3-3-5-5-5-1-1-1-3-3-|

Chorus:
G|-----------------------------------------------------------------------------------
|
D|--------3-2------------------------------------------------------------------------
|
A|-----------3-----------3-3-2-3-2-0-0-0-0-------------------------------0-0-0-0-0-0-
|
E|-1-1-1-1----3-3-3-0-1-3-------3---------3-0-3-1-1-1-1-0-1-3-3-3-3-0-3-3------------
|

G|-----------------------------------------------------------|
D|-------------3-2-------------------------------------------|
A|------3-3-3-3------------------3-3-2-3-2-0-0-0-0-0-0-------|
E|-0-1-3----------3-1-1-1-1-0-1-3----------------------0-1-3-|

. . . anything but ordinary please
G|----------------------------------------------------------------------|
D|--------------------------------------------------0-0-0-0-0-0-0-------|
A|------------------------0-0-0-0-0-0--1-1-1-1-1-1-1-------------333333-|
E|-3-3-3-3-3-3-1-1-1-1-1-1----------------------------------------------|

Bridge:
G|----------------------------------------------------------------------------------|
D|---------------00000000------------------------------------------0000000000000000-|
A|-0000000-------------------0000-2222-0000-------00000000-33333333-----------------|
E|--------0000000--------3333--------------3333333--------------------------------

OptimusPrime

Submitted by OptimusPrime at Thu 14 Aug, 2003 4:00 pm

Author: ?
Composer: ?
Publisher: ?
Language: English

Reactions

CommonCrawl [Bot]

Follow Muzikum