Avril Lavigne
03 Complicated (Bass tab)

VERSE
G-------------------------------------------------
D---3--3--3-3--3-3--3-3---------------------------
A-------------------------5--5--5-5--5-5--5-5-----
E-------------------------------------------------

G-------------------------------------------------
D-------------------------------------------------
A---1--1--1-1--1-1--1-1---3--3--3-3--3-3-3--------
E-------------------------------------------------

PRE CHORUS
G-----------------------------------------------------
D-----------------------------------------------------
A---1----1---1--1-/-5----5---5--5-/-1----1---1--1-/-3-
E-----------------------------------------------------

CHORUS
G-----------------------------------------
D-----------------3-3-3-3-----------------
A-5-5-5-1-1-1-1----------3-3-3-3----------
E-----------------------------------------

G-------------------------------
D-------------------------------
A------------------1 (let ring)-
E--3-3-3-3-3-3-3-3--------------

Copyrights
Author: ?
Composer: ?
Publisher: ?

Reactions

CommonCrawl [Bot]

Follow Muzikum