Avril Lavigne

Avril Lavigne
Why (Guitar tab)

"Why" - Avril Lavigne
Tabbed by: ~muncho~
hey everyone! this is a great song! listen to the song to get the correct strumming. enjoy!

e|-------------------------------------|
B|-------------------------------------|
G|--9-9-9-9-9-9-9-6-6-6-6-6-6-6--------|
D|--9-9-9-9-9-9-9-7-7-7-7-7-7-7--------|
A|--7-7-7-7-7-7-7-5-5-5-5-5-5-5--------|
E|--7-7-7-7-7-7-7-5-5-5-5-5-5-5--------|
intro... (play 2x)

e|-----------------------------------------------|
B|---------------------------------5-------------|
G|--9--6--9--6-------------9--5/6--6--6----------|
D|--9--7--9--9-------------9--6/7--6--9----------|
A|--7--5--7--9-------------7--6/5--4--9----------|
E|--7--5--7--7-------------7--4/5--4--7----------|
verse (play 3x)... then play... for the "do you expect me to believe..." part

e|-------------------------------------------------------------|
B|-------------------------------------------------------------|
G|--------------------------4-4--------------------------------|
D|--7-7-7-7-6-6-6-6-4-4-4-4-4-4--7-7-7-7-6-6-6-6-4-4-4-4-------|
A|--7-7-7-7-6-6-6-6-4-4-4-4-2-2--7-7-7-7-6-6-6-6-4-4-4-4-------|
E|--5-5-5-5-4-4-4-4-2-2-2-2------5-5-5-5-4-4-4-4-2-2-2-2-------|
per-chorus... the "i can feel, i can feel, i can feel you near me...." part

e|---------------------------------------------------------|
B|--------5-----------------5--------5------5--------------|
G|--9--8--6--4--2--4--9--8--6--4--2--6--6--6--6------------|
D|--9--9--6--4--2--4--9--9--6--4--2--6--7--6--7--7--9------|
A|--7--9--4--2--0--2--7--9--4--2--0--4--7--4--7--7--9------|
E|--7--7--4--2--0--2--7--7--4--2--0--4--5--4--5--5--7------|
the chorus...
the chorus...

e|--------------------------------------|
B|--5-----------5-----------------------|
G|--6--8--9--7--6--6--8-----------------|
D|--6--9--9--7--6--7--9-----------------|
A|--4--9--7--5--4--7--9-----------------|
E|--4--7--7--5--4--5--7-----------------|
here's the bridge... ("so go on think about...")

then play the pre-chorus as well as the first part of the chorus (up to the "i need you, i need you, i need you, tell me...")

e|-------------------------------------------------------------|
B|----------7-------------------7--------7-----7---------------|
G|--11--10--8--6--4--6--11--10--8--6--4--8--8--8--8------------|
D|--11--11--8--6--4--6--11--11--8--6--4--8--9--8--9--9--11-----|
A|--9---11--6--4--2--4--9---11--6--4--2--6--9--6--9--9--11-----|
E|--9---9---6--4--2--4--9---9---6--4--2--6--7--6--7--7--9------|
then play this as the repeat of the chorus (because there is a key change)

and that's it!!

OptimusPrime

Submitted by OptimusPrime at Tue 22 Jul, 2003 7:21 am

Author: ?
Composer: ?
Publisher: ?
Language: English

Reactions

CommonCrawl [Bot]

Follow Muzikum