Guns 'N' Roses
Patience 2001 Intro (Guitar tab)

Song - Patience Intro, Rock In Rio 3
Band - Guns N Roses
Tabbed By - MrFace

At the beginning of Patience from the Rock In Rio 3 show, January 2001, Robin Finck plays a brilliant
improvisation over the top of the chord intro. I liked it so much that i wanted to play it, anything i work
out i tab.. so here ya go.

The chord pattern is C, G, A and D. This pattern is played through once by Finck before he starts the
improvising.

E:-------------------------------9---------------------------------8-10------------------------------------------------------
B:--------4/8~~~~~----11---10fb----8----------8-10-11---------10fb--8-------10--10~~~~-8/10~-----------
G:----------------------------------------------------------------------------------------------------------8/10~-----------
D:-----------------------------------------------------------------------------------------------------------------------------
A:-----------------------------------------------------------------------------------------------------------------------------
E:-----------------------------------------------------------------------------------------------------------------------------

E:------------10------8-------6------3-h-5-----------------------------------------6/8-6--4-----------------------------
B:---------7-------5-------3-----------------6-----------7h9h7~~/11--9\7--------------------6-4---6-/-8-\6\4-----
G:----------------------------------------------------------------------------------------------------------------------------
D:----------------------------------------------------------------------------------------------------------------------------
A:----------------------------------------------------------------------------------------------------------------------------
E:----------------------------------------------------------------------------------------------------------------------------

E:-----------------------------------------------------------------------------------------------------------------------------
B:--------------7-------------------------------------------------------------------------------------------------------------
G:-------5--8-------7hb--6------12-11~~-12~~-12/14~~~--14fb-12---------------------------------------------
D:-----------------------------------------------------------------------------------------------------------------------------
A:-----------------------------------------------------------------------------------------------------------------------------
E:-----------------------------------------------------------------------------------------------------------------------------

I will try and work the solo out soon. The rest of the song is practically the same as the original GnR played
it, some minor alterations along the way.

Quick and easy to work out, feels great to play if you put the right amount of feeling into it.

Enjoy!

Comments: ryan.lowe@ntlworld.com
MSN: face123@homestead.com
AIM: CrazyRetardFace

Copyrights
Author: ?
Composer: ?
Publisher: ?
More details
Language: English

Reactions

CommonCrawl [Bot]

Follow Muzikum