Led Zeppelin
Misty Mountain Hop Ver 2 (Bass tab)

Song: Misty Mountain Hop
Artist: Led Zeppelin
Album: Led Zeppelin IV

Tabbed by: Zepplinfreak

Standard tuning


Intro/Main Riff:
Q. Q E E E

G------------------------------------------------------------------------------
D-4---------------------------------------2-------------------------------------
A-4----------------------0------------------------------------------------------
E------------------------------3----0------------0------------------------------


The Second Part (where the words come in, i dont no wat thats called)
E E E E E E E E E E E E E E E

G-------------------------------------------------------------------------------
D------------------------------------------------------------------------------
A-0-0-0-0-0-0-0-0---x3-------0-0-0-0-0-0-0---back to main riff—x4---------------
E------------------------------------------------------------------------------

The 3rd part (I don’t know wher this is but its wen it changes to sumthin different from the other 2 parts)

i dont no the countin for this but these are the notes ___
G-------------------------------------------------------------------------------
D----------------0-5-5------5---------------------------------------------------
A—0-5-5-0-5------------5-0------------------------------------------------------E-------------------------------5-(hold while guitar plays main riff twice)-----



Counting

Q= quarter note
Q.= dotted quarter note
H= half note
W= whole note
E= eighth note

Copyrights
Author: ?
Composer: ?
Publisher: ?

Reactions

CommonCrawl [Bot]

Follow Muzikum