Led Zeppelin
Bron-yr-aur Stomp Ver 5 (Guitar tab)

Bron-yr-aur stomp
led zeppelin
omyinc.

"TUNING"
(F)
(C)
(F)
(A)
(C)
(F)
*=harmonics


f\*12*-*7*-------0-0-----*12*-*7*-------0-------------------
c\*12*-*7*---0-------0---*12*-*7*---0-------0---------------
f\*12*-*7*---------------*12*-*7*---------------------------
a\*12*-*7*-0---4-------4-*12*-*7*-4---0---4---0-------------
c\*12*-*7*---------------*12*-*7*---------------------------
f\*12*-*7*---------------*12*-*7*---------------------------

f\--0---0---0---0---0-----------0---0---0---0---0-------0----
c\-----------------------------------------------------------
f\-----------------------------------------------------------
a\4---0---4---0---4---0-0-2-0-4---0---4---0---4---0-0-2---0--
c\-----------------------------------------------------------
f\-----------------------------------------------------------

f\-----------------------------------------------------------
c\------------------0---0-----------0-------0----------------
f\------0-------------------------------------------0--------
a\4-0-0---4-0-0-------0---0-0-4-0-0---4-0-0---2-0-0----------
c\--------------0-2-----------------------------------2-0----
f\-----------------------------------------------------------

f\---------------------------------------------------------------
c\------0-------0-------0-----------0-------0---0----------------
f\---------------------------------------------------------------
a\4-0-0---4-0-0---4-0-0---2-0-----0---0-0-0---0------------------
c\----------------------------0-2----------------2-0-------------
f\---------------------------------------------------------------

f\--0---0---0---0---0-----------0---0---0---0---0-------0----
c\-----------------------------------------------------------
f\-----------------------------------------------------------
a\4---0---4---0---4---0-0-2-0-4---0---4---0---4---0-0-2---0--
c\-----------------------------------------------------------
f\-----------------------------------------------------------

f\-----------------------------------------------------------
c\------------------0---0-----------0-------0----------------
f\------0-------------------------------------------0--------
a\4-0-0---4-0-0-------0---0-0-4-0-0---4-0-0---2-0-0----------
c\--------------0-2-----------------------------------2-0----
f\-----------------------------------------------------------

f\---------------------------------------------------------------
c\------0-------0-------0-----------0-------0---0----------------
f\---------------------------------------------------------------
a\4-0-0---4-0-0---4-0-0---2-0-----0---0-0-0---0------------------
c\----------------------------0-2----------------2-0-------------
f\---------------------------------------------------------------

(guitar part)
f\*12*-*7*-------0-0-----*12*-*7*-------0-------------------
c\*12*-*7*---0-------0---*12*-*7*---0-------0---------------
f\*12*-*7*---------------*12*-*7*---------------------------
a\*12*-*7*-0---4-------4-*12*-*7*-4---0---4---0-------------
c\*12*-*7*---------------*12*-*7*---------------------------
f\*12*-*7*---------------*12*-*7*---------------------------

f\--0---0---0---0---0-----------0---0---0---0---0-------0----
c\-----------------------------------------------------------
f\-----------------------------------------------------------
a\4---0---4---0---4---0-0-2-0-4---0---4---0---4---0-0-2---0--
c\-----------------------------------------------------------
f\-----------------------------------------------------------

f\-----------------------------------------------------------
c\------------------0---0-----------0-------0----------------
f\------0-------------------------------------------0--------
a\4-0-0---4-0-0-------0---0-0-4-0-0---4-0-0---2-0-0----------
c\--------------0-2-----------------------------------2-0----
f\-----------------------------------------------------------

f\---------------------------------------------------------------
c\------0-------0-------0-----------0-------0---0----------------
f\---------------------------------------------------------------
a\4-0-0---4-0-0---4-0-0---2-0-----0---0-0-0---0------------------
c\----------------------------0-2----------------2-0-------------
f\---------------------------------------------------------------

enjoy!!!!

omyinc.

  • Aros

    Submitted by

    Aros at Tue 17 Aug, 2004 7:26 pm

  • <
Copyrights
Author: ?
Composer: ?
Publisher: ?
More details
Language: Welsh

Reactions

CommonCrawl [Bot]

Follow Muzikum